  0
SECTION
  2
HEADER
  9
$ACADVER
  1
AC1014
  9
$HANDSEED
  5
FFFF
  9
$MEASUREMENT
 70
     1
  0
ENDSEC
  0
SECTION
  2
TABLES
  0
TABLE
  2
VPORT
  5
8
330
0
100
AcDbSymbolTable
 70
     4
  0
VPORT
  5
2E
330
8
100
AcDbSymbolTableRecord
100
AcDbViewportTableRecord
  2
*ACTIVE
 70
     0
 10
0.0
 20
0.0
 11
1.0
 21
1.0
 12
210.0
 22
148.5
 13
0.0
 23
0.0
 14
10.0
 24
10.0
 15
10.0
 25
10.0
 16
0.0
 26
0.0
 36
1.0
 17
0.0
 27
0.0
 37
0.0
 40
341.0
 41
1.24
 42
50.0
 43
0.0
 44
0.0
 50
0.0
 51
0.0
 71
     0
 72
   100
 73
     1
 74
     3
 75
     0
 76
     0
 77
     0
 78
     0
  0
ENDTAB
  0
TABLE
  2
LTYPE
  5
5
330
0
100
AcDbSymbolTable
 70
     1
  0
LTYPE
  5
14
330
5
100
AcDbSymbolTableRecord
100
AcDbLinetypeTableRecord
  2
BYBLOCK
 70
     0
  3

 72
    65
 73
     0
 40
0.0
  0
LTYPE
  5
15
330
5
100
AcDbSymbolTableRecord
100
AcDbLinetypeTableRecord
  2
BYLAYER
 70
     0
  3

 72
    65
 73
     0
 40
0.0
  0
LTYPE
  5
16
330
5
100
AcDbSymbolTableRecord
100
AcDbLinetypeTableRecord
  2
CONTINUOUS
 70
     0
  3
Solid line
 72
    65
 73
     0
 40
0.0
  0
ENDTAB
  0
TABLE
  2
LAYER
  5
2
100
AcDbSymbolTable
 70
1
  0
LAYER
  5
50
100
AcDbSymbolTableRecord
100
AcDbLayerTableRecord
  2
0
 70
0
  6
CONTINUOUS
  0
ENDTAB
  0
TABLE
  2
STYLE
  5
3
330
0
100
AcDbSymbolTable
 70
     1
  0
STYLE
  5
11
330
3
100
AcDbSymbolTableRecord
100
AcDbTextStyleTableRecord
  2
STANDARD
 70
     0
 40
0.0
 41
1.0
 50
0.0
 71
     0
 42
2.5
  3
txt
  4

  0
ENDTAB
  0
TABLE
  2
VIEW
  5
6
330
0
100
AcDbSymbolTable
 70
     0
  0
ENDTAB
  0
TABLE
  2
UCS
  5
7
330
0
100
AcDbSymbolTable
 70
     0
  0
ENDTAB
  0
TABLE
  2
APPID
  5
9
330
0
100
AcDbSymbolTable
 70
     2
  0
APPID
  5
12
330
9
100
AcDbSymbolTableRecord
100
AcDbRegAppTableRecord
  2
ACAD
 70
     0
  0
ENDTAB
  0
TABLE
  2
DIMSTYLE
  5
A
330
0
100
AcDbSymbolTable
 70
     1
  0
DIMSTYLE
105
27
330
A
100
AcDbSymbolTableRecord
100
AcDbDimStyleTableRecord
  2
ISO-25
 70
     0
  3

  4

  5

  6

  7

 40
1.0
 41
2.5
 42
0.625
 43
3.75
 44
1.25
 45
0.0
 46
0.0
 47
0.0
 48
0.0
140
2.5
141
2.5
142
0.0
143
0.03937007874016
144
1.0
145
0.0
146
1.0
147
0.625
 71
     0
 72
     0
 73
     0
 74
     0
 75
     0
 76
     0
 77
     1
 78
     8
170
     0
171
     3
172
     1
173
     0
174
     0
175
     0
176
     0
177
     0
178
     0
270
     2
271
     2
272
     2
273
     2
274
     3
340
11
275
     0
280
     0
281
     0
282
     0
283
     0
284
     8
285
     0
286
     0
287
     3
288
     0
  0
ENDTAB
  0
TABLE
  2
BLOCK_RECORD
  5
1
330
0
100
AcDbSymbolTable
 70
     1
  0
BLOCK_RECORD
  5
1F
330
1
100
AcDbSymbolTableRecord
100
AcDbBlockTableRecord
  2
*MODEL_SPACE
  0
BLOCK_RECORD
  5
1B
330
1
100
AcDbSymbolTableRecord
100
AcDbBlockTableRecord
  2
*PAPER_SPACE
  0
ENDTAB
  0
ENDSEC
  0
SECTION
  2
BLOCKS
  0
BLOCK
  5
20
330
1F
100
AcDbEntity
  8
0
100
AcDbBlockBegin
  2
*MODEL_SPACE
 70
     0
 10
0.0
 20
0.0
 30
0.0
  3
*MODEL_SPACE
  1

  0
ENDBLK
  5
21
330
1F
100
AcDbEntity
  8
0
100
AcDbBlockEnd
  0
BLOCK
  5
1C
330
1B
100
AcDbEntity
 67
     1
  8
0
100
AcDbBlockBegin
  2
*PAPER_SPACE
  1

  0
ENDBLK
  5
1D
330
1B
100
AcDbEntity
 67
     1
  8
0
100
AcDbBlockEnd
  0
ENDSEC
  0
SECTION
  2
ENTITIES
  0
LINE
  5
100
100
AcDbEntity
  8
0
 62
7
100
AcDbLine
 10
1.281009
 20
22.408476
 30
0.0
 11
1.281009
 21
43.728478
 31
0.0
  0
LINE
  5
101
100
AcDbEntity
  8
0
 62
7
100
AcDbLine
 10
1.281009
 20
43.728478
 30
0.0
 11
3.953113
 21
43.728478
 31
0.0
  0
LINE
  5
102
100
AcDbEntity
  8
0
 62
7
100
AcDbLine
 10
3.953113
 20
43.728478
 30
0.0
 11
6.625217
 21
43.728478
 31
0.0
  0
LINE
  5
103
100
AcDbEntity
  8
0
 62
7
100
AcDbLine
 10
6.625217
 20
43.728478
 30
0.0
 11
6.625217
 21
42.678478
 31
0.0
  0
LINE
  5
104
100
AcDbEntity
  8
0
 62
7
100
AcDbLine
 10
6.625217
 20
42.678478
 30
0.0
 11
6.625217
 21
41.628478
 31
0.0
  0
LINE
  5
105
100
AcDbEntity
  8
0
 62
7
100
AcDbLine
 10
6.625217
 20
41.628478
 30
0.0
 11
7.876201
 21
41.628478
 31
0.0
  0
LINE
  5
106
100
AcDbEntity
  8
0
 62
7
100
AcDbLine
 10
7.876201
 20
41.628478
 30
0.0
 11
9.127188
 21
41.628478
 31
0.0
  0
LINE
  5
107
100
AcDbEntity
  8
0
 62
7
100
AcDbLine
 10
9.127188
 20
41.628478
 30
0.0
 11
9.127188
 21
42.678478
 31
0.0
  0
LINE
  5
108
100
AcDbEntity
  8
0
 62
7
100
AcDbLine
 10
9.127188
 20
42.678478
 30
0.0
 11
9.127188
 21
43.728478
 31
0.0
  0
LINE
  5
109
100
AcDbEntity
  8
0
 62
7
100
AcDbLine
 10
9.127188
 20
43.728478
 30
0.0
 11
12.069503
 21
43.728478
 31
0.0
  0
LINE
  5
10a
100
AcDbEntity
  8
0
 62
7
100
AcDbLine
 10
12.069503
 20
43.728478
 30
0.0
 11
15.011821
 21
43.728478
 31
0.0
  0
LINE
  5
10b
100
AcDbEntity
  8
0
 62
7
100
AcDbLine
 10
15.011821
 20
43.728478
 30
0.0
 11
15.011821
 21
42.678478
 31
0.0
  0
LINE
  5
10c
100
AcDbEntity
  8
0
 62
7
100
AcDbLine
 10
15.011821
 20
42.678478
 30
0.0
 11
15.011821
 21
41.628478
 31
0.0
  0
LINE
  5
10d
100
AcDbEntity
  8
0
 62
7
100
AcDbLine
 10
15.011821
 20
41.628478
 30
0.0
 11
16.252798
 21
41.628478
 31
0.0
  0
LINE
  5
10e
100
AcDbEntity
  8
0
 62
7
100
AcDbLine
 10
16.252798
 20
41.628478
 30
0.0
 11
17.493775
 21
41.628478
 31
0.0
  0
LINE
  5
10f
100
AcDbEntity
  8
0
 62
7
100
AcDbLine
 10
17.493775
 20
41.628478
 30
0.0
 11
17.493775
 21
42.678478
 31
0.0
  0
LINE
  5
110
100
AcDbEntity
  8
0
 62
7
100
AcDbLine
 10
17.493775
 20
42.678478
 30
0.0
 11
17.493775
 21
43.728478
 31
0.0
  0
LINE
  5
111
100
AcDbEntity
  8
0
 62
7
100
AcDbLine
 10
17.493775
 20
43.728478
 30
0.0
 11
18.774784
 21
43.728478
 31
0.0
  0
LINE
  5
112
100
AcDbEntity
  8
0
 62
7
100
AcDbLine
 10
18.774784
 20
43.728478
 30
0.0
 11
20.055792
 21
43.728478
 31
0.0
  0
LINE
  5
113
100
AcDbEntity
  8
0
 62
7
100
AcDbLine
 10
20.055792
 20
43.728478
 30
0.0
 11
20.055792
 21
22.408476
 31
0.0
  0
LINE
  5
114
100
AcDbEntity
  8
0
 62
7
100
AcDbLine
 10
20.055792
 20
22.408476
 30
0.0
 11
20.055792
 21
1.088477
 31
0.0
  0
LINE
  5
115
100
AcDbEntity
  8
0
 62
7
100
AcDbLine
 10
20.055792
 20
1.088477
 30
0.0
 11
10.668402
 21
1.088477
 31
0.0
  0
LINE
  5
116
100
AcDbEntity
  8
0
 62
7
100
AcDbLine
 10
10.668402
 20
1.088477
 30
0.0
 11
1.281009
 21
1.088477
 31
0.0
  0
LINE
  5
117
100
AcDbEntity
  8
0
 62
7
100
AcDbLine
 10
1.281009
 20
1.088477
 30
0.0
 11
1.281009
 21
22.408476
 31
0.0
  0
LINE
  5
118
100
AcDbEntity
  8
0
 62
7
100
AcDbLine
 10
19.555398
 20
18.698477
 30
0.0
 11
19.555398
 21
35.788477
 31
0.0
  0
LINE
  5
119
100
AcDbEntity
  8
0
 62
7
100
AcDbLine
 10
19.555398
 20
35.788477
 30
0.0
 11
16.703152
 21
35.788477
 31
0.0
  0
LINE
  5
11a
100
AcDbEntity
  8
0
 62
7
100
AcDbLine
 10
16.703152
 20
35.788477
 30
0.0
 11
13.850907
 21
35.788477
 31
0.0
  0
LINE
  5
11b
100
AcDbEntity
  8
0
 62
7
100
AcDbLine
 10
13.850907
 20
35.788477
 30
0.0
 11
13.850907
 21
36.708478
 31
0.0
  0
LINE
  5
11c
100
AcDbEntity
  8
0
 62
7
100
AcDbLine
 10
13.850907
 20
36.708478
 30
0.0
 11
13.850907
 21
37.628478
 31
0.0
  0
LINE
  5
11d
100
AcDbEntity
  8
0
 62
7
100
AcDbLine
 10
13.850907
 20
37.628478
 30
0.0
 11
13.660757
 21
37.628478
 31
0.0
  0
LINE
  5
11e
100
AcDbEntity
  8
0
 62
7
100
AcDbLine
 10
13.660757
 20
37.628478
 30
0.0
 11
13.470607
 21
37.628478
 31
0.0
  0
LINE
  5
11f
100
AcDbEntity
  8
0
 62
7
100
AcDbLine
 10
13.470607
 20
37.628478
 30
0.0
 11
13.470607
 21
36.518477
 31
0.0
  0
LINE
  5
120
100
AcDbEntity
  8
0
 62
7
100
AcDbLine
 10
13.470607
 20
36.518477
 30
0.0
 11
13.470607
 21
35.408477
 31
0.0
  0
LINE
  5
121
100
AcDbEntity
  8
0
 62
7
100
AcDbLine
 10
13.470607
 20
35.408477
 30
0.0
 11
16.322853
 21
35.408477
 31
0.0
  0
LINE
  5
122
100
AcDbEntity
  8
0
 62
7
100
AcDbLine
 10
16.322853
 20
35.408477
 30
0.0
 11
19.175099
 21
35.408477
 31
0.0
  0
LINE
  5
123
100
AcDbEntity
  8
0
 62
7
100
AcDbLine
 10
19.175099
 20
35.408477
 30
0.0
 11
19.175099
 21
32.268477
 31
0.0
  0
LINE
  5
124
100
AcDbEntity
  8
0
 62
7
100
AcDbLine
 10
19.175099
 20
32.268477
 30
0.0
 11
19.175099
 21
29.128477
 31
0.0
  0
LINE
  5
125
100
AcDbEntity
  8
0
 62
7
100
AcDbLine
 10
19.175099
 20
29.128477
 30
0.0
 11
18.754768
 21
29.128477
 31
0.0
  0
LINE
  5
126
100
AcDbEntity
  8
0
 62
7
100
AcDbLine
 10
18.754768
 20
29.128477
 30
0.0
 11
18.334437
 21
29.128477
 31
0.0
  0
LINE
  5
127
100
AcDbEntity
  8
0
 62
7
100
AcDbLine
 10
18.334437
 20
29.128477
 30
0.0
 11
18.334437
 21
29.438477
 31
0.0
  0
LINE
  5
128
100
AcDbEntity
  8
0
 62
7
100
AcDbLine
 10
18.334437
 20
29.438477
 30
0.0
 11
18.334437
 21
29.748477
 31
0.0
  0
LINE
  5
129
100
AcDbEntity
  8
0
 62
7
100
AcDbLine
 10
18.334437
 20
29.748477
 30
0.0
 11
17.473759
 21
29.748477
 31
0.0
  0
LINE
  5
12a
100
AcDbEntity
  8
0
 62
7
100
AcDbLine
 10
17.473759
 20
29.748477
 30
0.0
 11
16.613082
 21
29.748477
 31
0.0
  0
LINE
  5
12b
100
AcDbEntity
  8
0
 62
7
100
AcDbLine
 10
16.613082
 20
29.748477
 30
0.0
 11
16.613082
 21
28.938477
 31
0.0
  0
LINE
  5
12c
100
AcDbEntity
  8
0
 62
7
100
AcDbLine
 10
16.613082
 20
28.938477
 30
0.0
 11
16.613082
 21
28.128477
 31
0.0
  0
LINE
  5
12d
100
AcDbEntity
  8
0
 62
7
100
AcDbLine
 10
16.613082
 20
28.128477
 30
0.0
 11
16.943342
 21
28.128477
 31
0.0
  0
LINE
  5
12e
100
AcDbEntity
  8
0
 62
7
100
AcDbLine
 10
16.943342
 20
28.128477
 30
0.0
 11
17.273602
 21
28.128477
 31
0.0
  0
LINE
  5
12f
100
AcDbEntity
  8
0
 62
7
100
AcDbLine
 10
17.273602
 20
28.128477
 30
0.0
 11
17.273602
 21
27.918477
 31
0.0
  0
LINE
  5
130
100
AcDbEntity
  8
0
 62
7
100
AcDbLine
 10
17.273602
 20
27.918477
 30
0.0
 11
17.273602
 21
27.708477
 31
0.0
  0
LINE
  5
131
100
AcDbEntity
  8
0
 62
7
100
AcDbLine
 10
17.273602
 20
27.708477
 30
0.0
 11
16.753192
 21
27.708477
 31
0.0
  0
LINE
  5
132
100
AcDbEntity
  8
0
 62
7
100
AcDbLine
 10
16.753192
 20
27.708477
 30
0.0
 11
16.232782
 21
27.708477
 31
0.0
  0
LINE
  5
133
100
AcDbEntity
  8
0
 62
7
100
AcDbLine
 10
16.232782
 20
27.708477
 30
0.0
 11
16.232782
 21
26.898477
 31
0.0
  0
LINE
  5
134
100
AcDbEntity
  8
0
 62
7
100
AcDbLine
 10
16.232782
 20
26.898477
 30
0.0
 11
16.232782
 21
26.088477
 31
0.0
  0
LINE
  5
135
100
AcDbEntity
  8
0
 62
7
100
AcDbLine
 10
16.232782
 20
26.088477
 30
0.0
 11
17.093460
 21
26.088477
 31
0.0
  0
LINE
  5
136
100
AcDbEntity
  8
0
 62
7
100
AcDbLine
 10
17.093460
 20
26.088477
 30
0.0
 11
17.954138
 21
26.088477
 31
0.0
  0
LINE
  5
137
100
AcDbEntity
  8
0
 62
7
100
AcDbLine
 10
17.954138
 20
26.088477
 30
0.0
 11
17.954138
 21
26.898477
 31
0.0
  0
LINE
  5
138
100
AcDbEntity
  8
0
 62
7
100
AcDbLine
 10
17.954138
 20
26.898477
 30
0.0
 11
17.954138
 21
27.708477
 31
0.0
  0
LINE
  5
139
100
AcDbEntity
  8
0
 62
7
100
AcDbLine
 10
17.954138
 20
27.708477
 30
0.0
 11
17.804019
 21
27.708477
 31
0.0
  0
LINE
  5
13a
100
AcDbEntity
  8
0
 62
7
100
AcDbLine
 10
17.804019
 20
27.708477
 30
0.0
 11
17.653901
 21
27.708477
 31
0.0
  0
LINE
  5
13b
100
AcDbEntity
  8
0
 62
7
100
AcDbLine
 10
17.653901
 20
27.708477
 30
0.0
 11
17.653901
 21
27.918477
 31
0.0
  0
LINE
  5
13c
100
AcDbEntity
  8
0
 62
7
100
AcDbLine
 10
17.653901
 20
27.918477
 30
0.0
 11
17.653901
 21
28.128477
 31
0.0
  0
LINE
  5
13d
100
AcDbEntity
  8
0
 62
7
100
AcDbLine
 10
17.653901
 20
28.128477
 30
0.0
 11
17.994169
 21
28.128477
 31
0.0
  0
LINE
  5
13e
100
AcDbEntity
  8
0
 62
7
100
AcDbLine
 10
17.994169
 20
28.128477
 30
0.0
 11
18.334437
 21
28.128477
 31
0.0
  0
LINE
  5
13f
100
AcDbEntity
  8
0
 62
7
100
AcDbLine
 10
18.334437
 20
28.128477
 30
0.0
 11
18.334437
 21
28.438477
 31
0.0
  0
LINE
  5
140
100
AcDbEntity
  8
0
 62
7
100
AcDbLine
 10
18.334437
 20
28.438477
 30
0.0
 11
18.334437
 21
28.748477
 31
0.0
  0
LINE
  5
141
100
AcDbEntity
  8
0
 62
7
100
AcDbLine
 10
18.334437
 20
28.748477
 30
0.0
 11
18.754768
 21
28.748477
 31
0.0
  0
LINE
  5
142
100
AcDbEntity
  8
0
 62
7
100
AcDbLine
 10
18.754768
 20
28.748477
 30
0.0
 11
19.175099
 21
28.748477
 31
0.0
  0
LINE
  5
143
100
AcDbEntity
  8
0
 62
7
100
AcDbLine
 10
19.175099
 20
28.748477
 30
0.0
 11
19.175099
 21
15.368476
 31
0.0
  0
LINE
  5
144
100
AcDbEntity
  8
0
 62
7
100
AcDbLine
 10
19.175099
 20
15.368476
 30
0.0
 11
19.175099
 21
1.988476
 31
0.0
  0
LINE
  5
145
100
AcDbEntity
  8
0
 62
7
100
AcDbLine
 10
19.175099
 20
1.988476
 30
0.0
 11
12.669977
 21
1.988476
 31
0.0
  0
LINE
  5
146
100
AcDbEntity
  8
0
 62
7
100
AcDbLine
 10
12.669977
 20
1.988476
 30
0.0
 11
6.164855
 21
1.988476
 31
0.0
  0
LINE
  5
147
100
AcDbEntity
  8
0
 62
7
100
AcDbLine
 10
6.164855
 20
1.988476
 30
0.0
 11
6.164855
 21
2.568477
 31
0.0
  0
LINE
  5
148
100
AcDbEntity
  8
0
 62
7
100
AcDbLine
 10
6.164855
 20
2.568477
 30
0.0
 11
6.164855
 21
3.148476
 31
0.0
  0
LINE
  5
149
100
AcDbEntity
  8
0
 62
7
100
AcDbLine
 10
6.164855
 20
3.148476
 30
0.0
 11
6.505122
 21
3.148476
 31
0.0
  0
LINE
  5
14a
100
AcDbEntity
  8
0
 62
7
100
AcDbLine
 10
6.505122
 20
3.148476
 30
0.0
 11
6.845390
 21
3.148476
 31
0.0
  0
LINE
  5
14b
100
AcDbEntity
  8
0
 62
7
100
AcDbLine
 10
6.845390
 20
3.148476
 30
0.0
 11
6.845390
 21
3.958476
 31
0.0
  0
LINE
  5
14c
100
AcDbEntity
  8
0
 62
7
100
AcDbLine
 10
6.845390
 20
3.958476
 30
0.0
 11
6.845390
 21
4.768477
 31
0.0
  0
LINE
  5
14d
100
AcDbEntity
  8
0
 62
7
100
AcDbLine
 10
6.845390
 20
4.768477
 30
0.0
 11
5.974704
 21
4.768477
 31
0.0
  0
LINE
  5
14e
100
AcDbEntity
  8
0
 62
7
100
AcDbLine
 10
5.974704
 20
4.768477
 30
0.0
 11
5.104019
 21
4.768477
 31
0.0
  0
LINE
  5
14f
100
AcDbEntity
  8
0
 62
7
100
AcDbLine
 10
5.104019
 20
4.768477
 30
0.0
 11
5.104019
 21
3.958476
 31
0.0
  0
LINE
  5
150
100
AcDbEntity
  8
0
 62
7
100
AcDbLine
 10
5.104019
 20
3.958476
 30
0.0
 11
5.104019
 21
3.148476
 31
0.0
  0
LINE
  5
151
100
AcDbEntity
  8
0
 62
7
100
AcDbLine
 10
5.104019
 20
3.148476
 30
0.0
 11
5.444286
 21
3.148476
 31
0.0
  0
LINE
  5
152
100
AcDbEntity
  8
0
 62
7
100
AcDbLine
 10
5.444286
 20
3.148476
 30
0.0
 11
5.784556
 21
3.148476
 31
0.0
  0
LINE
  5
153
100
AcDbEntity
  8
0
 62
7
100
AcDbLine
 10
5.784556
 20
3.148476
 30
0.0
 11
5.784556
 21
2.568477
 31
0.0
  0
LINE
  5
154
100
AcDbEntity
  8
0
 62
7
100
AcDbLine
 10
5.784556
 20
2.568477
 30
0.0
 11
5.784556
 21
1.988476
 31
0.0
  0
LINE
  5
155
100
AcDbEntity
  8
0
 62
7
100
AcDbLine
 10
5.784556
 20
1.988476
 30
0.0
 11
4.703704
 21
1.988476
 31
0.0
  0
LINE
  5
156
100
AcDbEntity
  8
0
 62
7
100
AcDbLine
 10
4.703704
 20
1.988476
 30
0.0
 11
3.622852
 21
1.988476
 31
0.0
  0
LINE
  5
157
100
AcDbEntity
  8
0
 62
7
100
AcDbLine
 10
3.622852
 20
1.988476
 30
0.0
 11
3.622852
 21
2.568477
 31
0.0
  0
LINE
  5
158
100
AcDbEntity
  8
0
 62
7
100
AcDbLine
 10
3.622852
 20
2.568477
 30
0.0
 11
3.622852
 21
3.148476
 31
0.0
  0
LINE
  5
159
100
AcDbEntity
  8
0
 62
7
100
AcDbLine
 10
3.622852
 20
3.148476
 30
0.0
 11
3.963122
 21
3.148476
 31
0.0
  0
LINE
  5
15a
100
AcDbEntity
  8
0
 62
7
100
AcDbLine
 10
3.963122
 20
3.148476
 30
0.0
 11
4.303389
 21
3.148476
 31
0.0
  0
LINE
  5
15b
100
AcDbEntity
  8
0
 62
7
100
AcDbLine
 10
4.303389
 20
3.148476
 30
0.0
 11
4.303389
 21
3.958476
 31
0.0
  0
LINE
  5
15c
100
AcDbEntity
  8
0
 62
7
100
AcDbLine
 10
4.303389
 20
3.958476
 30
0.0
 11
4.303389
 21
4.768477
 31
0.0
  0
LINE
  5
15d
100
AcDbEntity
  8
0
 62
7
100
AcDbLine
 10
4.303389
 20
4.768477
 30
0.0
 11
3.442710
 21
4.768477
 31
0.0
  0
LINE
  5
15e
100
AcDbEntity
  8
0
 62
7
100
AcDbLine
 10
3.442710
 20
4.768477
 30
0.0
 11
2.582034
 21
4.768477
 31
0.0
  0
LINE
  5
15f
100
AcDbEntity
  8
0
 62
7
100
AcDbLine
 10
2.582034
 20
4.768477
 30
0.0
 11
2.582034
 21
3.958476
 31
0.0
  0
LINE
  5
160
100
AcDbEntity
  8
0
 62
7
100
AcDbLine
 10
2.582034
 20
3.958476
 30
0.0
 11
2.582034
 21
3.148476
 31
0.0
  0
LINE
  5
161
100
AcDbEntity
  8
0
 62
7
100
AcDbLine
 10
2.582034
 20
3.148476
 30
0.0
 11
2.912292
 21
3.148476
 31
0.0
  0
LINE
  5
162
100
AcDbEntity
  8
0
 62
7
100
AcDbLine
 10
2.912292
 20
3.148476
 30
0.0
 11
3.242553
 21
3.148476
 31
0.0
  0
LINE
  5
163
100
AcDbEntity
  8
0
 62
7
100
AcDbLine
 10
3.242553
 20
3.148476
 30
0.0
 11
3.242553
 21
2.568477
 31
0.0
  0
LINE
  5
164
100
AcDbEntity
  8
0
 62
7
100
AcDbLine
 10
3.242553
 20
2.568477
 30
0.0
 11
3.242553
 21
1.988476
 31
0.0
  0
LINE
  5
165
100
AcDbEntity
  8
0
 62
7
100
AcDbLine
 10
3.242553
 20
1.988476
 30
0.0
 11
2.672104
 21
1.988476
 31
0.0
  0
LINE
  5
166
100
AcDbEntity
  8
0
 62
7
100
AcDbLine
 10
2.672104
 20
1.988476
 30
0.0
 11
2.101654
 21
1.988476
 31
0.0
  0
LINE
  5
167
100
AcDbEntity
  8
0
 62
7
100
AcDbLine
 10
2.101654
 20
1.988476
 30
0.0
 11
2.101654
 21
11.848478
 31
0.0
  0
LINE
  5
168
100
AcDbEntity
  8
0
 62
7
100
AcDbLine
 10
2.101654
 20
11.848478
 30
0.0
 11
2.101654
 21
21.708476
 31
0.0
  0
LINE
  5
169
100
AcDbEntity
  8
0
 62
7
100
AcDbLine
 10
2.101654
 20
21.708476
 30
0.0
 11
5.200353
 21
21.708476
 31
0.0
  0
LINE
  5
16a
100
AcDbEntity
  8
0
 62
7
100
AcDbLine
 10
5.200353
 20
21.708476
 30
0.0
 11
8.299050
 21
21.708476
 31
0.0
  0
LINE
  5
16b
100
AcDbEntity
  8
0
 62
7
100
AcDbLine
 10
8.299050
 20
21.708476
 30
0.0
 11
8.357841
 21
21.646012
 31
0.0
  0
SPLINE
  5
16c
100
AcDbEntity
  8
0
 62
7
100
AcDbSpline
 70
8
 71
3
 72
8
 73
4
 74
0
 40
0
 40
0
 40
0
 40
0
 40
1
 40
1
 40
1
 40
1
 10
8.357841
 20
21.646012
 30
0.0
 10
8.469479
 20
21.527396
 30
0.0
 10
8.459189
 20
21.528476
 30
0.0
 10
9.476819
 20
21.528476
 30
0.0
  0
LINE
  5
16d
100
AcDbEntity
  8
0
 62
7
100
AcDbLine
 10
9.476819
 20
21.528476
 30
0.0
 11
10.408195
 21
21.528476
 31
0.0
  0
LINE
  5
16e
100
AcDbEntity
  8
0
 62
7
100
AcDbLine
 10
10.408195
 20
21.528476
 30
0.0
 11
10.408195
 21
21.908476
 31
0.0
  0
LINE
  5
16f
100
AcDbEntity
  8
0
 62
7
100
AcDbLine
 10
10.408195
 20
21.908476
 30
0.0
 11
10.408195
 21
22.288476
 31
0.0
  0
LINE
  5
170
100
AcDbEntity
  8
0
 62
7
100
AcDbLine
 10
10.408195
 20
22.288476
 30
0.0
 11
9.512490
 21
22.288276
 31
0.0
  0
SPLINE
  5
171
100
AcDbEntity
  8
0
 62
7
100
AcDbSpline
 70
8
 71
3
 72
8
 73
4
 74
0
 40
0
 40
0
 40
0
 40
0
 40
1
 40
1
 40
1
 40
1
 10
9.512490
 20
22.288276
 30
0.0
 10
8.937860
 20
22.288276
 30
0.0
 10
8.589129
 20
22.280492
 30
0.0
 10
8.539631
 20
22.266758
 30
0.0
  0
SPLINE
  5
172
100
AcDbEntity
  8
0
 62
7
100
AcDbSpline
 70
8
 71
3
 72
8
 73
4
 74
0
 40
0
 40
0
 40
0
 40
0
 40
1
 40
1
 40
1
 40
1
 10
8.539631
 20
22.266758
 30
0.0
 10
8.497197
 20
22.254984
 30
0.0
 10
8.424132
 20
22.210034
 30
0.0
 10
8.377266
 20
22.166870
 30
0.0
  0
LINE
  5
173
100
AcDbEntity
  8
0
 62
7
100
AcDbLine
 10
8.377266
 20
22.166870
 30
0.0
 11
8.292057
 21
22.088476
 31
0.0
  0
LINE
  5
174
100
AcDbEntity
  8
0
 62
7
100
AcDbLine
 10
8.292057
 20
22.088476
 30
0.0
 11
5.006705
 21
22.088476
 31
0.0
  0
LINE
  5
175
100
AcDbEntity
  8
0
 62
7
100
AcDbLine
 10
5.006705
 20
22.088476
 30
0.0
 11
1.721355
 21
22.088476
 31
0.0
  0
LINE
  5
176
100
AcDbEntity
  8
0
 62
7
100
AcDbLine
 10
1.721355
 20
22.088476
 30
0.0
 11
1.721355
 21
11.848478
 31
0.0
  0
LINE
  5
177
100
AcDbEntity
  8
0
 62
7
100
AcDbLine
 10
1.721355
 20
11.848478
 30
0.0
 11
1.721355
 21
1.608476
 31
0.0
  0
LINE
  5
178
100
AcDbEntity
  8
0
 62
7
100
AcDbLine
 10
1.721355
 20
1.608476
 30
0.0
 11
10.638377
 21
1.608476
 31
0.0
  0
LINE
  5
179
100
AcDbEntity
  8
0
 62
7
100
AcDbLine
 10
10.638377
 20
1.608476
 30
0.0
 11
19.555398
 21
1.608476
 31
0.0
  0
LINE
  5
17a
100
AcDbEntity
  8
0
 62
7
100
AcDbLine
 10
19.555398
 20
1.608476
 30
0.0
 11
19.555398
 21
18.698477
 31
0.0
  0
LINE
  5
17b
100
AcDbEntity
  8
0
 62
7
100
AcDbLine
 10
18.734752
 20
14.028478
 30
0.0
 11
18.734752
 21
25.568477
 31
0.0
  0
LINE
  5
17c
100
AcDbEntity
  8
0
 62
7
100
AcDbLine
 10
18.734752
 20
25.568477
 30
0.0
 11
17.013397
 21
25.568477
 31
0.0
  0
LINE
  5
17d
100
AcDbEntity
  8
0
 62
7
100
AcDbLine
 10
17.013397
 20
25.568477
 30
0.0
 11
15.292041
 21
25.568477
 31
0.0
  0
LINE
  5
17e
100
AcDbEntity
  8
0
 62
7
100
AcDbLine
 10
15.292041
 20
25.568477
 30
0.0
 11
15.292041
 21
26.078477
 31
0.0
  0
LINE
  5
17f
100
AcDbEntity
  8
0
 62
7
100
AcDbLine
 10
15.292041
 20
26.078477
 30
0.0
 11
15.292041
 21
26.588477
 31
0.0
  0
LINE
  5
180
100
AcDbEntity
  8
0
 62
7
100
AcDbLine
 10
15.292041
 20
26.588477
 30
0.0
 11
11.999449
 21
26.588477
 31
0.0
  0
LINE
  5
181
100
AcDbEntity
  8
0
 62
7
100
AcDbLine
 10
11.999449
 20
26.588477
 30
0.0
 11
8.706855
 21
26.588477
 31
0.0
  0
LINE
  5
182
100
AcDbEntity
  8
0
 62
7
100
AcDbLine
 10
8.706855
 20
26.588477
 30
0.0
 11
8.706855
 21
28.088477
 31
0.0
  0
LINE
  5
183
100
AcDbEntity
  8
0
 62
7
100
AcDbLine
 10
8.706855
 20
28.088477
 30
0.0
 11
8.706855
 21
29.588477
 31
0.0
  0
LINE
  5
184
100
AcDbEntity
  8
0
 62
7
100
AcDbLine
 10
8.706855
 20
29.588477
 30
0.0
 11
8.866981
 21
29.588477
 31
0.0
  0
LINE
  5
185
100
AcDbEntity
  8
0
 62
7
100
AcDbLine
 10
8.866981
 20
29.588477
 30
0.0
 11
9.027109
 21
29.588477
 31
0.0
  0
LINE
  5
186
100
AcDbEntity
  8
0
 62
7
100
AcDbLine
 10
9.027109
 20
29.588477
 30
0.0
 11
9.027109
 21
29.798477
 31
0.0
  0
LINE
  5
187
100
AcDbEntity
  8
0
 62
7
100
AcDbLine
 10
9.027109
 20
29.798477
 30
0.0
 11
9.027109
 21
30.008477
 31
0.0
  0
LINE
  5
188
100
AcDbEntity
  8
0
 62
7
100
AcDbLine
 10
9.027109
 20
30.008477
 30
0.0
 11
9.747676
 21
30.008477
 31
0.0
  0
LINE
  5
189
100
AcDbEntity
  8
0
 62
7
100
AcDbLine
 10
9.747676
 20
30.008477
 30
0.0
 11
10.468242
 21
30.008477
 31
0.0
  0
LINE
  5
18a
100
AcDbEntity
  8
0
 62
7
100
AcDbLine
 10
10.468242
 20
30.008477
 30
0.0
 11
10.468242
 21
30.688477
 31
0.0
  0
LINE
  5
18b
100
AcDbEntity
  8
0
 62
7
100
AcDbLine
 10
10.468242
 20
30.688477
 30
0.0
 11
10.468242
 21
31.368477
 31
0.0
  0
LINE
  5
18c
100
AcDbEntity
  8
0
 62
7
100
AcDbLine
 10
10.468242
 20
31.368477
 30
0.0
 11
10.628370
 21
31.368477
 31
0.0
  0
LINE
  5
18d
100
AcDbEntity
  8
0
 62
7
100
AcDbLine
 10
10.628370
 20
31.368477
 30
0.0
 11
10.788496
 21
31.368477
 31
0.0
  0
LINE
  5
18e
100
AcDbEntity
  8
0
 62
7
100
AcDbLine
 10
10.788496
 20
31.368477
 30
0.0
 11
10.788496
 21
31.978477
 31
0.0
  0
LINE
  5
18f
100
AcDbEntity
  8
0
 62
7
100
AcDbLine
 10
10.788496
 20
31.978477
 30
0.0
 11
10.788496
 21
32.588477
 31
0.0
  0
LINE
  5
190
100
AcDbEntity
  8
0
 62
7
100
AcDbLine
 10
10.788496
 20
32.588477
 30
0.0
 11
10.718440
 21
32.588477
 31
0.0
  0
LINE
  5
191
100
AcDbEntity
  8
0
 62
7
100
AcDbLine
 10
10.718440
 20
32.588477
 30
0.0
 11
10.648386
 21
32.588477
 31
0.0
  0
LINE
  5
192
100
AcDbEntity
  8
0
 62
7
100
AcDbLine
 10
10.648386
 20
32.588477
 30
0.0
 11
10.648386
 21
35.108477
 31
0.0
  0
LINE
  5
193
100
AcDbEntity
  8
0
 62
7
100
AcDbLine
 10
10.648386
 20
35.108477
 30
0.0
 11
10.648386
 21
37.628478
 31
0.0
  0
LINE
  5
194
100
AcDbEntity
  8
0
 62
7
100
AcDbLine
 10
10.648386
 20
37.628478
 30
0.0
 11
10.458235
 21
37.628478
 31
0.0
  0
LINE
  5
195
100
AcDbEntity
  8
0
 62
7
100
AcDbLine
 10
10.458235
 20
37.628478
 30
0.0
 11
10.268085
 21
37.628478
 31
0.0
  0
LINE
  5
196
100
AcDbEntity
  8
0
 62
7
100
AcDbLine
 10
10.268085
 20
37.628478
 30
0.0
 11
10.268085
 21
35.108477
 31
0.0
  0
LINE
  5
197
100
AcDbEntity
  8
0
 62
7
100
AcDbLine
 10
10.268085
 20
35.108477
 30
0.0
 11
10.268085
 21
32.588477
 31
0.0
  0
LINE
  5
198
100
AcDbEntity
  8
0
 62
7
100
AcDbLine
 10
10.268085
 20
32.588477
 30
0.0
 11
10.027896
 21
32.588477
 31
0.0
  0
LINE
  5
199
100
AcDbEntity
  8
0
 62
7
100
AcDbLine
 10
10.027896
 20
32.588477
 30
0.0
 11
9.787707
 21
32.588477
 31
0.0
  0
LINE
  5
19a
100
AcDbEntity
  8
0
 62
7
100
AcDbLine
 10
9.787707
 20
32.588477
 30
0.0
 11
9.787707
 21
31.978477
 31
0.0
  0
LINE
  5
19b
100
AcDbEntity
  8
0
 62
7
100
AcDbLine
 10
9.787707
 20
31.978477
 30
0.0
 11
9.787707
 21
31.368477
 31
0.0
  0
LINE
  5
19c
100
AcDbEntity
  8
0
 62
7
100
AcDbLine
 10
9.787707
 20
31.368477
 30
0.0
 11
9.937826
 21
31.368477
 31
0.0
  0
LINE
  5
19d
100
AcDbEntity
  8
0
 62
7
100
AcDbLine
 10
9.937826
 20
31.368477
 30
0.0
 11
10.087943
 21
31.368477
 31
0.0
  0
LINE
  5
19e
100
AcDbEntity
  8
0
 62
7
100
AcDbLine
 10
10.087943
 20
31.368477
 30
0.0
 11
10.087943
 21
30.878477
 31
0.0
  0
LINE
  5
19f
100
AcDbEntity
  8
0
 62
7
100
AcDbLine
 10
10.087943
 20
30.878477
 30
0.0
 11
10.087943
 21
30.388477
 31
0.0
  0
LINE
  5
1a0
100
AcDbEntity
  8
0
 62
7
100
AcDbLine
 10
10.087943
 20
30.388477
 30
0.0
 11
9.557525
 21
30.388477
 31
0.0
  0
LINE
  5
1a1
100
AcDbEntity
  8
0
 62
7
100
AcDbLine
 10
9.557525
 20
30.388477
 30
0.0
 11
9.027109
 21
30.388477
 31
0.0
  0
LINE
  5
1a2
100
AcDbEntity
  8
0
 62
7
100
AcDbLine
 10
9.027109
 20
30.388477
 30
0.0
 11
9.027109
 21
30.598477
 31
0.0
  0
LINE
  5
1a3
100
AcDbEntity
  8
0
 62
7
100
AcDbLine
 10
9.027109
 20
30.598477
 30
0.0
 11
9.027109
 21
30.808477
 31
0.0
  0
LINE
  5
1a4
100
AcDbEntity
  8
0
 62
7
100
AcDbLine
 10
9.027109
 20
30.808477
 30
0.0
 11
8.516707
 21
30.808477
 31
0.0
  0
LINE
  5
1a5
100
AcDbEntity
  8
0
 62
7
100
AcDbLine
 10
8.516707
 20
30.808477
 30
0.0
 11
8.006305
 21
30.808477
 31
0.0
  0
LINE
  5
1a6
100
AcDbEntity
  8
0
 62
7
100
AcDbLine
 10
8.006305
 20
30.808477
 30
0.0
 11
8.006305
 21
30.198477
 31
0.0
  0
LINE
  5
1a7
100
AcDbEntity
  8
0
 62
7
100
AcDbLine
 10
8.006305
 20
30.198477
 30
0.0
 11
8.006305
 21
29.588477
 31
0.0
  0
LINE
  5
1a8
100
AcDbEntity
  8
0
 62
7
100
AcDbLine
 10
8.006305
 20
29.588477
 30
0.0
 11
8.166430
 21
29.588477
 31
0.0
  0
LINE
  5
1a9
100
AcDbEntity
  8
0
 62
7
100
AcDbLine
 10
8.166430
 20
29.588477
 30
0.0
 11
8.326556
 21
29.588477
 31
0.0
  0
LINE
  5
1aa
100
AcDbEntity
  8
0
 62
7
100
AcDbLine
 10
8.326556
 20
29.588477
 30
0.0
 11
8.326556
 21
27.898477
 31
0.0
  0
LINE
  5
1ab
100
AcDbEntity
  8
0
 62
7
100
AcDbLine
 10
8.326556
 20
27.898477
 30
0.0
 11
8.326556
 21
26.208477
 31
0.0
  0
LINE
  5
1ac
100
AcDbEntity
  8
0
 62
7
100
AcDbLine
 10
8.326556
 20
26.208477
 30
0.0
 11
11.619150
 21
26.208477
 31
0.0
  0
LINE
  5
1ad
100
AcDbEntity
  8
0
 62
7
100
AcDbLine
 10
11.619150
 20
26.208477
 30
0.0
 11
14.911742
 21
26.208477
 31
0.0
  0
LINE
  5
1ae
100
AcDbEntity
  8
0
 62
7
100
AcDbLine
 10
14.911742
 20
26.208477
 30
0.0
 11
14.911742
 21
24.248476
 31
0.0
  0
LINE
  5
1af
100
AcDbEntity
  8
0
 62
7
100
AcDbLine
 10
14.911742
 20
24.248476
 30
0.0
 11
14.911742
 21
22.288476
 31
0.0
  0
LINE
  5
1b0
100
AcDbEntity
  8
0
 62
7
100
AcDbLine
 10
14.911742
 20
22.288476
 30
0.0
 11
14.821671
 21
22.288476
 31
0.0
  0
LINE
  5
1b1
100
AcDbEntity
  8
0
 62
7
100
AcDbLine
 10
14.821671
 20
22.288476
 30
0.0
 11
14.731600
 21
22.288476
 31
0.0
  0
LINE
  5
1b2
100
AcDbEntity
  8
0
 62
7
100
AcDbLine
 10
14.731600
 20
22.288476
 30
0.0
 11
14.731600
 21
21.908476
 31
0.0
  0
LINE
  5
1b3
100
AcDbEntity
  8
0
 62
7
100
AcDbLine
 10
14.731600
 20
21.908476
 30
0.0
 11
14.731600
 21
21.528476
 31
0.0
  0
LINE
  5
1b4
100
AcDbEntity
  8
0
 62
7
100
AcDbLine
 10
14.731600
 20
21.528476
 30
0.0
 11
15.622301
 21
21.528476
 31
0.0
  0
LINE
  5
1b5
100
AcDbEntity
  8
0
 62
7
100
AcDbLine
 10
15.622301
 20
21.528476
 30
0.0
 11
16.513003
 21
21.528476
 31
0.0
  0
LINE
  5
1b6
100
AcDbEntity
  8
0
 62
7
100
AcDbLine
 10
16.513003
 20
21.528476
 30
0.0
 11
16.513003
 21
21.908476
 31
0.0
  0
LINE
  5
1b7
100
AcDbEntity
  8
0
 62
7
100
AcDbLine
 10
16.513003
 20
21.908476
 30
0.0
 11
16.513003
 21
22.288476
 31
0.0
  0
LINE
  5
1b8
100
AcDbEntity
  8
0
 62
7
100
AcDbLine
 10
16.513003
 20
22.288476
 30
0.0
 11
15.902522
 21
22.288476
 31
0.0
  0
LINE
  5
1b9
100
AcDbEntity
  8
0
 62
7
100
AcDbLine
 10
15.902522
 20
22.288476
 30
0.0
 11
15.292041
 21
22.288476
 31
0.0
  0
LINE
  5
1ba
100
AcDbEntity
  8
0
 62
7
100
AcDbLine
 10
15.292041
 20
22.288476
 30
0.0
 11
15.292041
 21
23.738476
 31
0.0
  0
LINE
  5
1bb
100
AcDbEntity
  8
0
 62
7
100
AcDbLine
 10
15.292041
 20
23.738476
 30
0.0
 11
15.292041
 21
25.188476
 31
0.0
  0
LINE
  5
1bc
100
AcDbEntity
  8
0
 62
7
100
AcDbLine
 10
15.292041
 20
25.188476
 30
0.0
 11
16.823247
 21
25.188476
 31
0.0
  0
LINE
  5
1bd
100
AcDbEntity
  8
0
 62
7
100
AcDbLine
 10
16.823247
 20
25.188476
 30
0.0
 11
18.354453
 21
25.188476
 31
0.0
  0
LINE
  5
1be
100
AcDbEntity
  8
0
 62
7
100
AcDbLine
 10
18.354453
 20
25.188476
 30
0.0
 11
18.354453
 21
14.028478
 31
0.0
  0
LINE
  5
1bf
100
AcDbEntity
  8
0
 62
7
100
AcDbLine
 10
18.354453
 20
14.028478
 30
0.0
 11
18.354453
 21
2.868478
 31
0.0
  0
LINE
  5
1c0
100
AcDbEntity
  8
0
 62
7
100
AcDbLine
 10
18.354453
 20
2.868478
 30
0.0
 11
14.921750
 21
2.868478
 31
0.0
  0
LINE
  5
1c1
100
AcDbEntity
  8
0
 62
7
100
AcDbLine
 10
14.921750
 20
2.868478
 30
0.0
 11
11.489047
 21
2.868478
 31
0.0
  0
LINE
  5
1c2
100
AcDbEntity
  8
0
 62
7
100
AcDbLine
 10
11.489047
 20
2.868478
 30
0.0
 11
11.489047
 21
3.538477
 31
0.0
  0
LINE
  5
1c3
100
AcDbEntity
  8
0
 62
7
100
AcDbLine
 10
11.489047
 20
3.538477
 30
0.0
 11
11.489047
 21
4.208476
 31
0.0
  0
LINE
  5
1c4
100
AcDbEntity
  8
0
 62
7
100
AcDbLine
 10
11.489047
 20
4.208476
 30
0.0
 11
11.709220
 21
4.208476
 31
0.0
  0
LINE
  5
1c5
100
AcDbEntity
  8
0
 62
7
100
AcDbLine
 10
11.709220
 20
4.208476
 30
0.0
 11
11.929393
 21
4.208476
 31
0.0
  0
LINE
  5
1c6
100
AcDbEntity
  8
0
 62
7
100
AcDbLine
 10
11.929393
 20
4.208476
 30
0.0
 11
11.929393
 21
5.478476
 31
0.0
  0
LINE
  5
1c7
100
AcDbEntity
  8
0
 62
7
100
AcDbLine
 10
11.929393
 20
5.478476
 30
0.0
 11
11.929393
 21
6.748476
 31
0.0
  0
LINE
  5
1c8
100
AcDbEntity
  8
0
 62
7
100
AcDbLine
 10
11.929393
 20
6.748476
 30
0.0
 11
11.298896
 21
6.748476
 31
0.0
  0
LINE
  5
1c9
100
AcDbEntity
  8
0
 62
7
100
AcDbLine
 10
11.298896
 20
6.748476
 30
0.0
 11
10.668402
 21
6.748476
 31
0.0
  0
LINE
  5
1ca
100
AcDbEntity
  8
0
 62
7
100
AcDbLine
 10
10.668402
 20
6.748476
 30
0.0
 11
10.668402
 21
6.208477
 31
0.0
  0
LINE
  5
1cb
100
AcDbEntity
  8
0
 62
7
100
AcDbLine
 10
10.668402
 20
6.208477
 30
0.0
 11
10.668402
 21
5.668476
 31
0.0
  0
LINE
  5
1cc
100
AcDbEntity
  8
0
 62
7
100
AcDbLine
 10
10.668402
 20
5.668476
 30
0.0
 11
7.145626
 21
5.668476
 31
0.0
  0
LINE
  5
1cd
100
AcDbEntity
  8
0
 62
7
100
AcDbLine
 10
7.145626
 20
5.668476
 30
0.0
 11
3.622852
 21
5.668476
 31
0.0
  0
LINE
  5
1ce
100
AcDbEntity
  8
0
 62
7
100
AcDbLine
 10
3.622852
 20
5.668476
 30
0.0
 11
3.622852
 21
5.928476
 31
0.0
  0
LINE
  5
1cf
100
AcDbEntity
  8
0
 62
7
100
AcDbLine
 10
3.622852
 20
5.928476
 30
0.0
 11
3.622852
 21
6.188477
 31
0.0
  0
LINE
  5
1d0
100
AcDbEntity
  8
0
 62
7
100
AcDbLine
 10
3.622852
 20
6.188477
 30
0.0
 11
3.963122
 21
6.188477
 31
0.0
  0
LINE
  5
1d1
100
AcDbEntity
  8
0
 62
7
100
AcDbLine
 10
3.963122
 20
6.188477
 30
0.0
 11
4.303389
 21
6.188477
 31
0.0
  0
LINE
  5
1d2
100
AcDbEntity
  8
0
 62
7
100
AcDbLine
 10
4.303389
 20
6.188477
 30
0.0
 11
4.303389
 21
6.998478
 31
0.0
  0
LINE
  5
1d3
100
AcDbEntity
  8
0
 62
7
100
AcDbLine
 10
4.303389
 20
6.998478
 30
0.0
 11
4.303389
 21
7.808476
 31
0.0
  0
LINE
  5
1d4
100
AcDbEntity
  8
0
 62
7
100
AcDbLine
 10
4.303389
 20
7.808476
 30
0.0
 11
3.963122
 21
7.808476
 31
0.0
  0
LINE
  5
1d5
100
AcDbEntity
  8
0
 62
7
100
AcDbLine
 10
3.963122
 20
7.808476
 30
0.0
 11
3.622852
 21
7.808476
 31
0.0
  0
LINE
  5
1d6
100
AcDbEntity
  8
0
 62
7
100
AcDbLine
 10
3.622852
 20
7.808476
 30
0.0
 11
3.622852
 21
10.448478
 31
0.0
  0
LINE
  5
1d7
100
AcDbEntity
  8
0
 62
7
100
AcDbLine
 10
3.622852
 20
10.448478
 30
0.0
 11
3.622852
 21
13.088477
 31
0.0
  0
LINE
  5
1d8
100
AcDbEntity
  8
0
 62
7
100
AcDbLine
 10
3.622852
 20
13.088477
 30
0.0
 11
4.263358
 21
13.088477
 31
0.0
  0
LINE
  5
1d9
100
AcDbEntity
  8
0
 62
7
100
AcDbLine
 10
4.263358
 20
13.088477
 30
0.0
 11
4.903861
 21
13.088477
 31
0.0
  0
LINE
  5
1da
100
AcDbEntity
  8
0
 62
7
100
AcDbLine
 10
4.903861
 20
13.088477
 30
0.0
 11
4.903861
 21
14.008478
 31
0.0
  0
LINE
  5
1db
100
AcDbEntity
  8
0
 62
7
100
AcDbLine
 10
4.903861
 20
14.008478
 30
0.0
 11
4.903861
 21
14.928477
 31
0.0
  0
LINE
  5
1dc
100
AcDbEntity
  8
0
 62
7
100
AcDbLine
 10
4.903861
 20
14.928477
 30
0.0
 11
5.003940
 21
14.928477
 31
0.0
  0
LINE
  5
1dd
100
AcDbEntity
  8
0
 62
7
100
AcDbLine
 10
5.003940
 20
14.928477
 30
0.0
 11
5.104019
 21
14.928477
 31
0.0
  0
LINE
  5
1de
100
AcDbEntity
  8
0
 62
7
100
AcDbLine
 10
5.104019
 20
14.928477
 30
0.0
 11
5.104019
 21
17.078478
 31
0.0
  0
LINE
  5
1df
100
AcDbEntity
  8
0
 62
7
100
AcDbLine
 10
5.104019
 20
17.078478
 30
0.0
 11
5.104019
 21
19.228477
 31
0.0
  0
LINE
  5
1e0
100
AcDbEntity
  8
0
 62
7
100
AcDbLine
 10
5.104019
 20
19.228477
 30
0.0
 11
4.703704
 21
19.228477
 31
0.0
  0
LINE
  5
1e1
100
AcDbEntity
  8
0
 62
7
100
AcDbLine
 10
4.703704
 20
19.228477
 30
0.0
 11
4.303389
 21
19.228477
 31
0.0
  0
LINE
  5
1e2
100
AcDbEntity
  8
0
 62
7
100
AcDbLine
 10
4.303389
 20
19.228477
 30
0.0
 11
4.303389
 21
17.078478
 31
0.0
  0
LINE
  5
1e3
100
AcDbEntity
  8
0
 62
7
100
AcDbLine
 10
4.303389
 20
17.078478
 30
0.0
 11
4.303389
 21
14.928477
 31
0.0
  0
LINE
  5
1e4
100
AcDbEntity
  8
0
 62
7
100
AcDbLine
 10
4.303389
 20
14.928477
 30
0.0
 11
4.413475
 21
14.928477
 31
0.0
  0
LINE
  5
1e5
100
AcDbEntity
  8
0
 62
7
100
AcDbLine
 10
4.413475
 20
14.928477
 30
0.0
 11
4.523562
 21
14.928477
 31
0.0
  0
LINE
  5
1e6
100
AcDbEntity
  8
0
 62
7
100
AcDbLine
 10
4.523562
 20
14.928477
 30
0.0
 11
4.523562
 21
14.198478
 31
0.0
  0
LINE
  5
1e7
100
AcDbEntity
  8
0
 62
7
100
AcDbLine
 10
4.523562
 20
14.198478
 30
0.0
 11
4.523562
 21
13.468477
 31
0.0
  0
LINE
  5
1e8
100
AcDbEntity
  8
0
 62
7
100
AcDbLine
 10
4.523562
 20
13.468477
 30
0.0
 11
3.883056
 21
13.468477
 31
0.0
  0
LINE
  5
1e9
100
AcDbEntity
  8
0
 62
7
100
AcDbLine
 10
3.883056
 20
13.468477
 30
0.0
 11
3.242553
 21
13.468477
 31
0.0
  0
LINE
  5
1ea
100
AcDbEntity
  8
0
 62
7
100
AcDbLine
 10
3.242553
 20
13.468477
 30
0.0
 11
3.242553
 21
10.638478
 31
0.0
  0
LINE
  5
1eb
100
AcDbEntity
  8
0
 62
7
100
AcDbLine
 10
3.242553
 20
10.638478
 30
0.0
 11
3.242553
 21
7.808476
 31
0.0
  0
LINE
  5
1ec
100
AcDbEntity
  8
0
 62
7
100
AcDbLine
 10
3.242553
 20
7.808476
 30
0.0
 11
2.912292
 21
7.808476
 31
0.0
  0
LINE
  5
1ed
100
AcDbEntity
  8
0
 62
7
100
AcDbLine
 10
2.912292
 20
7.808476
 30
0.0
 11
2.582034
 21
7.808476
 31
0.0
  0
LINE
  5
1ee
100
AcDbEntity
  8
0
 62
7
100
AcDbLine
 10
2.582034
 20
7.808476
 30
0.0
 11
2.582034
 21
6.998478
 31
0.0
  0
LINE
  5
1ef
100
AcDbEntity
  8
0
 62
7
100
AcDbLine
 10
2.582034
 20
6.998478
 30
0.0
 11
2.582034
 21
6.188477
 31
0.0
  0
LINE
  5
1f0
100
AcDbEntity
  8
0
 62
7
100
AcDbLine
 10
2.582034
 20
6.188477
 30
0.0
 11
2.912292
 21
6.188477
 31
0.0
  0
LINE
  5
1f1
100
AcDbEntity
  8
0
 62
7
100
AcDbLine
 10
2.912292
 20
6.188477
 30
0.0
 11
3.242553
 21
6.188477
 31
0.0
  0
LINE
  5
1f2
100
AcDbEntity
  8
0
 62
7
100
AcDbLine
 10
3.242553
 20
6.188477
 30
0.0
 11
3.242553
 21
5.738476
 31
0.0
  0
LINE
  5
1f3
100
AcDbEntity
  8
0
 62
7
100
AcDbLine
 10
3.242553
 20
5.738476
 30
0.0
 11
3.242553
 21
5.288476
 31
0.0
  0
LINE
  5
1f4
100
AcDbEntity
  8
0
 62
7
100
AcDbLine
 10
3.242553
 20
5.288476
 30
0.0
 11
6.955478
 21
5.288476
 31
0.0
  0
LINE
  5
1f5
100
AcDbEntity
  8
0
 62
7
100
AcDbLine
 10
6.955478
 20
5.288476
 30
0.0
 11
10.668402
 21
5.288476
 31
0.0
  0
LINE
  5
1f6
100
AcDbEntity
  8
0
 62
7
100
AcDbLine
 10
10.668402
 20
5.288476
 30
0.0
 11
10.668402
 21
4.748477
 31
0.0
  0
LINE
  5
1f7
100
AcDbEntity
  8
0
 62
7
100
AcDbLine
 10
10.668402
 20
4.748477
 30
0.0
 11
10.668402
 21
4.208476
 31
0.0
  0
LINE
  5
1f8
100
AcDbEntity
  8
0
 62
7
100
AcDbLine
 10
10.668402
 20
4.208476
 30
0.0
 11
10.888575
 21
4.208476
 31
0.0
  0
LINE
  5
1f9
100
AcDbEntity
  8
0
 62
7
100
AcDbLine
 10
10.888575
 20
4.208476
 30
0.0
 11
11.108748
 21
4.208476
 31
0.0
  0
LINE
  5
1fa
100
AcDbEntity
  8
0
 62
7
100
AcDbLine
 10
11.108748
 20
4.208476
 30
0.0
 11
11.108748
 21
3.348477
 31
0.0
  0
LINE
  5
1fb
100
AcDbEntity
  8
0
 62
7
100
AcDbLine
 10
11.108748
 20
3.348477
 30
0.0
 11
11.108748
 21
2.488475
 31
0.0
  0
LINE
  5
1fc
100
AcDbEntity
  8
0
 62
7
100
AcDbLine
 10
11.108748
 20
2.488475
 30
0.0
 11
14.921750
 21
2.488475
 31
0.0
  0
LINE
  5
1fd
100
AcDbEntity
  8
0
 62
7
100
AcDbLine
 10
14.921750
 20
2.488475
 30
0.0
 11
18.734752
 21
2.488475
 31
0.0
  0
LINE
  5
1fe
100
AcDbEntity
  8
0
 62
7
100
AcDbLine
 10
18.734752
 20
2.488475
 30
0.0
 11
18.734752
 21
14.028478
 31
0.0
  0
LINE
  5
1ff
100
AcDbEntity
  8
0
 62
7
100
AcDbLine
 10
15.292041
 20
6.298478
 30
0.0
 11
15.292041
 21
9.208476
 31
0.0
  0
LINE
  5
200
100
AcDbEntity
  8
0
 62
7
100
AcDbLine
 10
15.292041
 20
9.208476
 30
0.0
 11
13.390544
 21
9.208476
 31
0.0
  0
LINE
  5
201
100
AcDbEntity
  8
0
 62
7
100
AcDbLine
 10
13.390544
 20
9.208476
 30
0.0
 11
11.489047
 21
9.208476
 31
0.0
  0
LINE
  5
202
100
AcDbEntity
  8
0
 62
7
100
AcDbLine
 10
11.489047
 20
9.208476
 30
0.0
 11
11.489047
 21
9.428477
 31
0.0
  0
LINE
  5
203
100
AcDbEntity
  8
0
 62
7
100
AcDbLine
 10
11.489047
 20
9.428477
 30
0.0
 11
11.489047
 21
9.648476
 31
0.0
  0
LINE
  5
204
100
AcDbEntity
  8
0
 62
7
100
AcDbLine
 10
11.489047
 20
9.648476
 30
0.0
 11
11.709220
 21
9.648476
 31
0.0
  0
LINE
  5
205
100
AcDbEntity
  8
0
 62
7
100
AcDbLine
 10
11.709220
 20
9.648476
 30
0.0
 11
11.929393
 21
9.648476
 31
0.0
  0
LINE
  5
206
100
AcDbEntity
  8
0
 62
7
100
AcDbLine
 10
11.929393
 20
9.648476
 30
0.0
 11
11.929393
 21
10.188477
 31
0.0
  0
LINE
  5
207
100
AcDbEntity
  8
0
 62
7
100
AcDbLine
 10
11.929393
 20
10.188477
 30
0.0
 11
11.929393
 21
10.728476
 31
0.0
  0
LINE
  5
208
100
AcDbEntity
  8
0
 62
7
100
AcDbLine
 10
11.929393
 20
10.728476
 30
0.0
 11
12.349726
 21
10.728476
 31
0.0
  0
LINE
  5
209
100
AcDbEntity
  8
0
 62
7
100
AcDbLine
 10
12.349726
 20
10.728476
 30
0.0
 11
12.770056
 21
10.728476
 31
0.0
  0
LINE
  5
20a
100
AcDbEntity
  8
0
 62
7
100
AcDbLine
 10
12.770056
 20
10.728476
 30
0.0
 11
12.770056
 21
13.678477
 31
0.0
  0
LINE
  5
20b
100
AcDbEntity
  8
0
 62
7
100
AcDbLine
 10
12.770056
 20
13.678477
 30
0.0
 11
12.770056
 21
16.628478
 31
0.0
  0
LINE
  5
20c
100
AcDbEntity
  8
0
 62
7
100
AcDbLine
 10
12.770056
 20
16.628478
 30
0.0
 11
13.750827
 21
16.628478
 31
0.0
  0
LINE
  5
20d
100
AcDbEntity
  8
0
 62
7
100
AcDbLine
 10
13.750827
 20
16.628478
 30
0.0
 11
14.731600
 21
16.628478
 31
0.0
  0
LINE
  5
20e
100
AcDbEntity
  8
0
 62
7
100
AcDbLine
 10
14.731600
 20
16.628478
 30
0.0
 11
14.731600
 21
16.538477
 31
0.0
  0
LINE
  5
20f
100
AcDbEntity
  8
0
 62
7
100
AcDbLine
 10
14.731600
 20
16.538477
 30
0.0
 11
14.731600
 21
16.448476
 31
0.0
  0
LINE
  5
210
100
AcDbEntity
  8
0
 62
7
100
AcDbLine
 10
14.731600
 20
16.448476
 30
0.0
 11
15.622301
 21
16.448476
 31
0.0
  0
LINE
  5
211
100
AcDbEntity
  8
0
 62
7
100
AcDbLine
 10
15.622301
 20
16.448476
 30
0.0
 11
16.513003
 21
16.448476
 31
0.0
  0
LINE
  5
212
100
AcDbEntity
  8
0
 62
7
100
AcDbLine
 10
16.513003
 20
16.448476
 30
0.0
 11
16.513003
 21
16.828476
 31
0.0
  0
LINE
  5
213
100
AcDbEntity
  8
0
 62
7
100
AcDbLine
 10
16.513003
 20
16.828476
 30
0.0
 11
16.513003
 21
17.208479
 31
0.0
  0
LINE
  5
214
100
AcDbEntity
  8
0
 62
7
100
AcDbLine
 10
16.513003
 20
17.208479
 30
0.0
 11
15.622301
 21
17.208479
 31
0.0
  0
LINE
  5
215
100
AcDbEntity
  8
0
 62
7
100
AcDbLine
 10
15.622301
 20
17.208479
 30
0.0
 11
14.731600
 21
17.208479
 31
0.0
  0
LINE
  5
216
100
AcDbEntity
  8
0
 62
7
100
AcDbLine
 10
14.731600
 20
17.208479
 30
0.0
 11
14.731600
 21
17.108477
 31
0.0
  0
LINE
  5
217
100
AcDbEntity
  8
0
 62
7
100
AcDbLine
 10
14.731600
 20
17.108477
 30
0.0
 11
14.731600
 21
17.008478
 31
0.0
  0
LINE
  5
218
100
AcDbEntity
  8
0
 62
7
100
AcDbLine
 10
14.731600
 20
17.008478
 30
0.0
 11
13.560679
 21
17.008478
 31
0.0
  0
LINE
  5
219
100
AcDbEntity
  8
0
 62
7
100
AcDbLine
 10
13.560679
 20
17.008478
 30
0.0
 11
12.389757
 21
17.008478
 31
0.0
  0
LINE
  5
21a
100
AcDbEntity
  8
0
 62
7
100
AcDbLine
 10
12.389757
 20
17.008478
 30
0.0
 11
12.389757
 21
14.058477
 31
0.0
  0
LINE
  5
21b
100
AcDbEntity
  8
0
 62
7
100
AcDbLine
 10
12.389757
 20
14.058477
 30
0.0
 11
12.389757
 21
11.108476
 31
0.0
  0
LINE
  5
21c
100
AcDbEntity
  8
0
 62
7
100
AcDbLine
 10
12.389757
 20
11.108476
 30
0.0
 11
12.159575
 21
11.108476
 31
0.0
  0
LINE
  5
21d
100
AcDbEntity
  8
0
 62
7
100
AcDbLine
 10
12.159575
 20
11.108476
 30
0.0
 11
11.929393
 21
11.108476
 31
0.0
  0
LINE
  5
21e
100
AcDbEntity
  8
0
 62
7
100
AcDbLine
 10
11.929393
 20
11.108476
 30
0.0
 11
11.929393
 21
11.648477
 31
0.0
  0
LINE
  5
21f
100
AcDbEntity
  8
0
 62
7
100
AcDbLine
 10
11.929393
 20
11.648477
 30
0.0
 11
11.929393
 21
12.188478
 31
0.0
  0
LINE
  5
220
100
AcDbEntity
  8
0
 62
7
100
AcDbLine
 10
11.929393
 20
12.188478
 30
0.0
 11
11.298896
 21
12.188478
 31
0.0
  0
LINE
  5
221
100
AcDbEntity
  8
0
 62
7
100
AcDbLine
 10
11.298896
 20
12.188478
 30
0.0
 11
10.668402
 21
12.188478
 31
0.0
  0
LINE
  5
222
100
AcDbEntity
  8
0
 62
7
100
AcDbLine
 10
10.668402
 20
12.188478
 30
0.0
 11
10.668402
 21
10.918476
 31
0.0
  0
LINE
  5
223
100
AcDbEntity
  8
0
 62
7
100
AcDbLine
 10
10.668402
 20
10.918476
 30
0.0
 11
10.668402
 21
9.648476
 31
0.0
  0
LINE
  5
224
100
AcDbEntity
  8
0
 62
7
100
AcDbLine
 10
10.668402
 20
9.648476
 30
0.0
 11
10.888575
 21
9.648476
 31
0.0
  0
LINE
  5
225
100
AcDbEntity
  8
0
 62
7
100
AcDbLine
 10
10.888575
 20
9.648476
 30
0.0
 11
11.108748
 21
9.648476
 31
0.0
  0
LINE
  5
226
100
AcDbEntity
  8
0
 62
7
100
AcDbLine
 10
11.108748
 20
9.648476
 30
0.0
 11
11.108748
 21
9.238477
 31
0.0
  0
LINE
  5
227
100
AcDbEntity
  8
0
 62
7
100
AcDbLine
 10
11.108748
 20
9.238477
 30
0.0
 11
11.108748
 21
8.828476
 31
0.0
  0
LINE
  5
228
100
AcDbEntity
  8
0
 62
7
100
AcDbLine
 10
11.108748
 20
8.828476
 30
0.0
 11
13.010245
 21
8.828476
 31
0.0
  0
LINE
  5
229
100
AcDbEntity
  8
0
 62
7
100
AcDbLine
 10
13.010245
 20
8.828476
 30
0.0
 11
14.911742
 21
8.828476
 31
0.0
  0
LINE
  5
22a
100
AcDbEntity
  8
0
 62
7
100
AcDbLine
 10
14.911742
 20
8.828476
 30
0.0
 11
14.911742
 21
6.298478
 31
0.0
  0
LINE
  5
22b
100
AcDbEntity
  8
0
 62
7
100
AcDbLine
 10
14.911742
 20
6.298478
 30
0.0
 11
14.911742
 21
3.768476
 31
0.0
  0
LINE
  5
22c
100
AcDbEntity
  8
0
 62
7
100
AcDbLine
 10
14.911742
 20
3.768476
 30
0.0
 11
13.840899
 21
3.768476
 31
0.0
  0
LINE
  5
22d
100
AcDbEntity
  8
0
 62
7
100
AcDbLine
 10
13.840899
 20
3.768476
 30
0.0
 11
12.770056
 21
3.768476
 31
0.0
  0
LINE
  5
22e
100
AcDbEntity
  8
0
 62
7
100
AcDbLine
 10
12.770056
 20
3.768476
 30
0.0
 11
12.770056
 21
5.668476
 31
0.0
  0
LINE
  5
22f
100
AcDbEntity
  8
0
 62
7
100
AcDbLine
 10
12.770056
 20
5.668476
 30
0.0
 11
12.770056
 21
7.568478
 31
0.0
  0
LINE
  5
230
100
AcDbEntity
  8
0
 62
7
100
AcDbLine
 10
12.770056
 20
7.568478
 30
0.0
 11
10.358157
 21
7.568478
 31
0.0
  0
LINE
  5
231
100
AcDbEntity
  8
0
 62
7
100
AcDbLine
 10
10.358157
 20
7.568478
 30
0.0
 11
7.946257
 21
7.568478
 31
0.0
  0
LINE
  5
232
100
AcDbEntity
  8
0
 62
7
100
AcDbLine
 10
7.946257
 20
7.568478
 30
0.0
 11
7.946257
 21
8.618477
 31
0.0
  0
LINE
  5
233
100
AcDbEntity
  8
0
 62
7
100
AcDbLine
 10
7.946257
 20
8.618477
 30
0.0
 11
7.946257
 21
9.668476
 31
0.0
  0
LINE
  5
234
100
AcDbEntity
  8
0
 62
7
100
AcDbLine
 10
7.946257
 20
9.668476
 30
0.0
 11
8.226478
 21
9.668476
 31
0.0
  0
LINE
  5
235
100
AcDbEntity
  8
0
 62
7
100
AcDbLine
 10
8.226478
 20
9.668476
 30
0.0
 11
8.506698
 21
9.668476
 31
0.0
  0
LINE
  5
236
100
AcDbEntity
  8
0
 62
7
100
AcDbLine
 10
8.506698
 20
9.668476
 30
0.0
 11
8.506698
 21
10.178476
 31
0.0
  0
LINE
  5
237
100
AcDbEntity
  8
0
 62
7
100
AcDbLine
 10
8.506698
 20
10.178476
 30
0.0
 11
8.506698
 21
10.688476
 31
0.0
  0
LINE
  5
238
100
AcDbEntity
  8
0
 62
7
100
AcDbLine
 10
8.506698
 20
10.688476
 30
0.0
 11
7.746100
 21
10.688476
 31
0.0
  0
LINE
  5
239
100
AcDbEntity
  8
0
 62
7
100
AcDbLine
 10
7.746100
 20
10.688476
 30
0.0
 11
6.985500
 21
10.688476
 31
0.0
  0
LINE
  5
23a
100
AcDbEntity
  8
0
 62
7
100
AcDbLine
 10
6.985500
 20
10.688476
 30
0.0
 11
6.985500
 21
10.178476
 31
0.0
  0
LINE
  5
23b
100
AcDbEntity
  8
0
 62
7
100
AcDbLine
 10
6.985500
 20
10.178476
 30
0.0
 11
6.985500
 21
9.668476
 31
0.0
  0
LINE
  5
23c
100
AcDbEntity
  8
0
 62
7
100
AcDbLine
 10
6.985500
 20
9.668476
 30
0.0
 11
7.275729
 21
9.668476
 31
0.0
  0
LINE
  5
23d
100
AcDbEntity
  8
0
 62
7
100
AcDbLine
 10
7.275729
 20
9.668476
 30
0.0
 11
7.565959
 21
9.668476
 31
0.0
  0
LINE
  5
23e
100
AcDbEntity
  8
0
 62
7
100
AcDbLine
 10
7.565959
 20
9.668476
 30
0.0
 11
7.565959
 21
8.428477
 31
0.0
  0
LINE
  5
23f
100
AcDbEntity
  8
0
 62
7
100
AcDbLine
 10
7.565959
 20
8.428477
 30
0.0
 11
7.565959
 21
7.188478
 31
0.0
  0
LINE
  5
240
100
AcDbEntity
  8
0
 62
7
100
AcDbLine
 10
7.565959
 20
7.188478
 30
0.0
 11
9.977858
 21
7.188478
 31
0.0
  0
LINE
  5
241
100
AcDbEntity
  8
0
 62
7
100
AcDbLine
 10
9.977858
 20
7.188478
 30
0.0
 11
12.389757
 21
7.188478
 31
0.0
  0
LINE
  5
242
100
AcDbEntity
  8
0
 62
7
100
AcDbLine
 10
12.389757
 20
7.188478
 30
0.0
 11
12.389757
 21
5.288476
 31
0.0
  0
LINE
  5
243
100
AcDbEntity
  8
0
 62
7
100
AcDbLine
 10
12.389757
 20
5.288476
 30
0.0
 11
12.389757
 21
3.388476
 31
0.0
  0
LINE
  5
244
100
AcDbEntity
  8
0
 62
7
100
AcDbLine
 10
12.389757
 20
3.388476
 30
0.0
 11
13.840899
 21
3.388476
 31
0.0
  0
LINE
  5
245
100
AcDbEntity
  8
0
 62
7
100
AcDbLine
 10
13.840899
 20
3.388476
 30
0.0
 11
15.292041
 21
3.388476
 31
0.0
  0
LINE
  5
246
100
AcDbEntity
  8
0
 62
7
100
AcDbLine
 10
15.292041
 20
3.388476
 30
0.0
 11
15.292041
 21
6.298478
 31
0.0
  0
LINE
  5
247
100
AcDbEntity
  8
0
 62
7
100
AcDbLine
 10
14.471395
 20
5.478476
 30
0.0
 11
14.471395
 21
6.748476
 31
0.0
  0
LINE
  5
248
100
AcDbEntity
  8
0
 62
7
100
AcDbLine
 10
14.471395
 20
6.748476
 30
0.0
 11
14.251222
 21
6.748476
 31
0.0
  0
LINE
  5
249
100
AcDbEntity
  8
0
 62
7
100
AcDbLine
 10
14.251222
 20
6.748476
 30
0.0
 11
14.031048
 21
6.748476
 31
0.0
  0
LINE
  5
24a
100
AcDbEntity
  8
0
 62
7
100
AcDbLine
 10
14.031048
 20
6.748476
 30
0.0
 11
14.031048
 21
7.568478
 31
0.0
  0
LINE
  5
24b
100
AcDbEntity
  8
0
 62
7
100
AcDbLine
 10
14.031048
 20
7.568478
 30
0.0
 11
14.031048
 21
8.388477
 31
0.0
  0
LINE
  5
24c
100
AcDbEntity
  8
0
 62
7
100
AcDbLine
 10
14.031048
 20
8.388477
 30
0.0
 11
11.869346
 21
8.388477
 31
0.0
  0
LINE
  5
24d
100
AcDbEntity
  8
0
 62
7
100
AcDbLine
 10
11.869346
 20
8.388477
 30
0.0
 11
9.707644
 21
8.388477
 31
0.0
  0
LINE
  5
24e
100
AcDbEntity
  8
0
 62
7
100
AcDbLine
 10
9.707644
 20
8.388477
 30
0.0
 11
9.707644
 21
11.148478
 31
0.0
  0
LINE
  5
24f
100
AcDbEntity
  8
0
 62
7
100
AcDbLine
 10
9.707644
 20
11.148478
 30
0.0
 11
9.707644
 21
13.908476
 31
0.0
  0
LINE
  5
250
100
AcDbEntity
  8
0
 62
7
100
AcDbLine
 10
9.707644
 20
13.908476
 30
0.0
 11
10.057921
 21
13.908476
 31
0.0
  0
LINE
  5
251
100
AcDbEntity
  8
0
 62
7
100
AcDbLine
 10
10.057921
 20
13.908476
 30
0.0
 11
10.408195
 21
13.908476
 31
0.0
  0
LINE
  5
252
100
AcDbEntity
  8
0
 62
7
100
AcDbLine
 10
10.408195
 20
13.908476
 30
0.0
 11
10.408195
 21
14.288476
 31
0.0
  0
LINE
  5
253
100
AcDbEntity
  8
0
 62
7
100
AcDbLine
 10
10.408195
 20
14.288476
 30
0.0
 11
10.408195
 21
14.668476
 31
0.0
  0
LINE
  5
254
100
AcDbEntity
  8
0
 62
7
100
AcDbLine
 10
10.408195
 20
14.668476
 30
0.0
 11
9.527503
 21
14.668476
 31
0.0
  0
LINE
  5
255
100
AcDbEntity
  8
0
 62
7
100
AcDbLine
 10
9.527503
 20
14.668476
 30
0.0
 11
8.646808
 21
14.668476
 31
0.0
  0
LINE
  5
256
100
AcDbEntity
  8
0
 62
7
100
AcDbLine
 10
8.646808
 20
14.668476
 30
0.0
 11
8.646808
 21
14.288476
 31
0.0
  0
LINE
  5
257
100
AcDbEntity
  8
0
 62
7
100
AcDbLine
 10
8.646808
 20
14.288476
 30
0.0
 11
8.646808
 21
13.908476
 31
0.0
  0
LINE
  5
258
100
AcDbEntity
  8
0
 62
7
100
AcDbLine
 10
8.646808
 20
13.908476
 30
0.0
 11
8.987078
 21
13.908476
 31
0.0
  0
LINE
  5
259
100
AcDbEntity
  8
0
 62
7
100
AcDbLine
 10
8.987078
 20
13.908476
 30
0.0
 11
9.327345
 21
13.908476
 31
0.0
  0
LINE
  5
25a
100
AcDbEntity
  8
0
 62
7
100
AcDbLine
 10
9.327345
 20
13.908476
 30
0.0
 11
9.327345
 21
10.958478
 31
0.0
  0
LINE
  5
25b
100
AcDbEntity
  8
0
 62
7
100
AcDbLine
 10
9.327345
 20
10.958478
 30
0.0
 11
9.327345
 21
8.008477
 31
0.0
  0
LINE
  5
25c
100
AcDbEntity
  8
0
 62
7
100
AcDbLine
 10
9.327345
 20
8.008477
 30
0.0
 11
11.489047
 21
8.008477
 31
0.0
  0
LINE
  5
25d
100
AcDbEntity
  8
0
 62
7
100
AcDbLine
 10
11.489047
 20
8.008477
 30
0.0
 11
13.650748
 21
8.008477
 31
0.0
  0
LINE
  5
25e
100
AcDbEntity
  8
0
 62
7
100
AcDbLine
 10
13.650748
 20
8.008477
 30
0.0
 11
13.650748
 21
7.378478
 31
0.0
  0
LINE
  5
25f
100
AcDbEntity
  8
0
 62
7
100
AcDbLine
 10
13.650748
 20
7.378478
 30
0.0
 11
13.650748
 21
6.748476
 31
0.0
  0
LINE
  5
260
100
AcDbEntity
  8
0
 62
7
100
AcDbLine
 10
13.650748
 20
6.748476
 30
0.0
 11
13.430575
 21
6.748476
 31
0.0
  0
LINE
  5
261
100
AcDbEntity
  8
0
 62
7
100
AcDbLine
 10
13.430575
 20
6.748476
 30
0.0
 11
13.210402
 21
6.748476
 31
0.0
  0
LINE
  5
262
100
AcDbEntity
  8
0
 62
7
100
AcDbLine
 10
13.210402
 20
6.748476
 30
0.0
 11
13.210402
 21
5.478476
 31
0.0
  0
LINE
  5
263
100
AcDbEntity
  8
0
 62
7
100
AcDbLine
 10
13.210402
 20
5.478476
 30
0.0
 11
13.210402
 21
4.208476
 31
0.0
  0
LINE
  5
264
100
AcDbEntity
  8
0
 62
7
100
AcDbLine
 10
13.210402
 20
4.208476
 30
0.0
 11
13.840899
 21
4.208476
 31
0.0
  0
LINE
  5
265
100
AcDbEntity
  8
0
 62
7
100
AcDbLine
 10
13.840899
 20
4.208476
 30
0.0
 11
14.471395
 21
4.208476
 31
0.0
  0
LINE
  5
266
100
AcDbEntity
  8
0
 62
7
100
AcDbLine
 10
14.471395
 20
4.208476
 30
0.0
 11
14.471395
 21
5.478476
 31
0.0
  0
LINE
  5
267
100
AcDbEntity
  8
0
 62
7
100
AcDbLine
 10
17.013397
 20
4.748477
 30
0.0
 11
17.013397
 21
5.288476
 31
0.0
  0
LINE
  5
268
100
AcDbEntity
  8
0
 62
7
100
AcDbLine
 10
17.013397
 20
5.288476
 30
0.0
 11
17.403704
 21
5.288476
 31
0.0
  0
LINE
  5
269
100
AcDbEntity
  8
0
 62
7
100
AcDbLine
 10
17.403704
 20
5.288476
 30
0.0
 11
17.794012
 21
5.288476
 31
0.0
  0
LINE
  5
26a
100
AcDbEntity
  8
0
 62
7
100
AcDbLine
 10
17.794012
 20
5.288476
 30
0.0
 11
17.794012
 21
14.168477
 31
0.0
  0
LINE
  5
26b
100
AcDbEntity
  8
0
 62
7
100
AcDbLine
 10
17.794012
 20
14.168477
 30
0.0
 11
17.794012
 21
23.048476
 31
0.0
  0
LINE
  5
26c
100
AcDbEntity
  8
0
 62
7
100
AcDbLine
 10
17.794012
 20
23.048476
 30
0.0
 11
17.874074
 21
23.048476
 31
0.0
  0
LINE
  5
26d
100
AcDbEntity
  8
0
 62
7
100
AcDbLine
 10
17.874074
 20
23.048476
 30
0.0
 11
17.954138
 21
23.048476
 31
0.0
  0
LINE
  5
26e
100
AcDbEntity
  8
0
 62
7
100
AcDbLine
 10
17.954138
 20
23.048476
 30
0.0
 11
17.954138
 21
23.858476
 31
0.0
  0
LINE
  5
26f
100
AcDbEntity
  8
0
 62
7
100
AcDbLine
 10
17.954138
 20
23.858476
 30
0.0
 11
17.954138
 21
24.668477
 31
0.0
  0
LINE
  5
270
100
AcDbEntity
  8
0
 62
7
100
AcDbLine
 10
17.954138
 20
24.668477
 30
0.0
 11
17.093460
 21
24.668477
 31
0.0
  0
LINE
  5
271
100
AcDbEntity
  8
0
 62
7
100
AcDbLine
 10
17.093460
 20
24.668477
 30
0.0
 11
16.232782
 21
24.668477
 31
0.0
  0
LINE
  5
272
100
AcDbEntity
  8
0
 62
7
100
AcDbLine
 10
16.232782
 20
24.668477
 30
0.0
 11
16.232782
 21
23.858476
 31
0.0
  0
LINE
  5
273
100
AcDbEntity
  8
0
 62
7
100
AcDbLine
 10
16.232782
 20
23.858476
 30
0.0
 11
16.232782
 21
23.048476
 31
0.0
  0
LINE
  5
274
100
AcDbEntity
  8
0
 62
7
100
AcDbLine
 10
16.232782
 20
23.048476
 30
0.0
 11
16.823247
 21
23.048476
 31
0.0
  0
LINE
  5
275
100
AcDbEntity
  8
0
 62
7
100
AcDbLine
 10
16.823247
 20
23.048476
 30
0.0
 11
17.413712
 21
23.048476
 31
0.0
  0
LINE
  5
276
100
AcDbEntity
  8
0
 62
7
100
AcDbLine
 10
17.413712
 20
23.048476
 30
0.0
 11
17.413712
 21
14.358477
 31
0.0
  0
LINE
  5
277
100
AcDbEntity
  8
0
 62
7
100
AcDbLine
 10
17.413712
 20
14.358477
 30
0.0
 11
17.413712
 21
5.668476
 31
0.0
  0
LINE
  5
278
100
AcDbEntity
  8
0
 62
7
100
AcDbLine
 10
17.413712
 20
5.668476
 30
0.0
 11
17.213554
 21
5.668476
 31
0.0
  0
LINE
  5
279
100
AcDbEntity
  8
0
 62
7
100
AcDbLine
 10
17.213554
 20
5.668476
 30
0.0
 11
17.013397
 21
5.668476
 31
0.0
  0
LINE
  5
27a
100
AcDbEntity
  8
0
 62
7
100
AcDbLine
 10
17.013397
 20
5.668476
 30
0.0
 11
17.013397
 21
6.208477
 31
0.0
  0
LINE
  5
27b
100
AcDbEntity
  8
0
 62
7
100
AcDbLine
 10
17.013397
 20
6.208477
 30
0.0
 11
17.013397
 21
6.748476
 31
0.0
  0
LINE
  5
27c
100
AcDbEntity
  8
0
 62
7
100
AcDbLine
 10
17.013397
 20
6.748476
 30
0.0
 11
16.382900
 21
6.748476
 31
0.0
  0
LINE
  5
27d
100
AcDbEntity
  8
0
 62
7
100
AcDbLine
 10
16.382900
 20
6.748476
 30
0.0
 11
15.752404
 21
6.748476
 31
0.0
  0
LINE
  5
27e
100
AcDbEntity
  8
0
 62
7
100
AcDbLine
 10
15.752404
 20
6.748476
 30
0.0
 11
15.752404
 21
5.478476
 31
0.0
  0
LINE
  5
27f
100
AcDbEntity
  8
0
 62
7
100
AcDbLine
 10
15.752404
 20
5.478476
 30
0.0
 11
15.752404
 21
4.208476
 31
0.0
  0
LINE
  5
280
100
AcDbEntity
  8
0
 62
7
100
AcDbLine
 10
15.752404
 20
4.208476
 30
0.0
 11
16.382900
 21
4.208476
 31
0.0
  0
LINE
  5
281
100
AcDbEntity
  8
0
 62
7
100
AcDbLine
 10
16.382900
 20
4.208476
 30
0.0
 11
17.013397
 21
4.208476
 31
0.0
  0
LINE
  5
282
100
AcDbEntity
  8
0
 62
7
100
AcDbLine
 10
17.013397
 20
4.208476
 30
0.0
 11
17.013397
 21
4.748477
 31
0.0
  0
LINE
  5
283
100
AcDbEntity
  8
0
 62
7
100
AcDbLine
 10
6.845390
 20
6.998478
 30
0.0
 11
6.845390
 21
7.808476
 31
0.0
  0
LINE
  5
284
100
AcDbEntity
  8
0
 62
7
100
AcDbLine
 10
6.845390
 20
7.808476
 30
0.0
 11
6.505122
 21
7.808476
 31
0.0
  0
LINE
  5
285
100
AcDbEntity
  8
0
 62
7
100
AcDbLine
 10
6.505122
 20
7.808476
 30
0.0
 11
6.164855
 21
7.808476
 31
0.0
  0
LINE
  5
286
100
AcDbEntity
  8
0
 62
7
100
AcDbLine
 10
6.164855
 20
7.808476
 30
0.0
 11
6.164855
 21
9.628476
 31
0.0
  0
LINE
  5
287
100
AcDbEntity
  8
0
 62
7
100
AcDbLine
 10
6.164855
 20
9.628476
 30
0.0
 11
6.164855
 21
11.448476
 31
0.0
  0
LINE
  5
288
100
AcDbEntity
  8
0
 62
7
100
AcDbLine
 10
6.164855
 20
11.448476
 30
0.0
 11
6.575179
 21
11.448476
 31
0.0
  0
LINE
  5
289
100
AcDbEntity
  8
0
 62
7
100
AcDbLine
 10
6.575179
 20
11.448476
 30
0.0
 11
6.985500
 21
11.448476
 31
0.0
  0
LINE
  5
28a
100
AcDbEntity
  8
0
 62
7
100
AcDbLine
 10
6.985500
 20
11.448476
 30
0.0
 11
6.985500
 21
11.298478
 31
0.0
  0
LINE
  5
28b
100
AcDbEntity
  8
0
 62
7
100
AcDbLine
 10
6.985500
 20
11.298478
 30
0.0
 11
6.985500
 21
11.148478
 31
0.0
  0
LINE
  5
28c
100
AcDbEntity
  8
0
 62
7
100
AcDbLine
 10
6.985500
 20
11.148478
 30
0.0
 11
7.746100
 21
11.148478
 31
0.0
  0
LINE
  5
28d
100
AcDbEntity
  8
0
 62
7
100
AcDbLine
 10
7.746100
 20
11.148478
 30
0.0
 11
8.506698
 21
11.148478
 31
0.0
  0
LINE
  5
28e
100
AcDbEntity
  8
0
 62
7
100
AcDbLine
 10
8.506698
 20
11.148478
 30
0.0
 11
8.506698
 21
11.648477
 31
0.0
  0
LINE
  5
28f
100
AcDbEntity
  8
0
 62
7
100
AcDbLine
 10
8.506698
 20
11.648477
 30
0.0
 11
8.506698
 21
12.148476
 31
0.0
  0
LINE
  5
290
100
AcDbEntity
  8
0
 62
7
100
AcDbLine
 10
8.506698
 20
12.148476
 30
0.0
 11
8.226478
 21
12.148476
 31
0.0
  0
LINE
  5
291
100
AcDbEntity
  8
0
 62
7
100
AcDbLine
 10
8.226478
 20
12.148476
 30
0.0
 11
7.946257
 21
12.148476
 31
0.0
  0
LINE
  5
292
100
AcDbEntity
  8
0
 62
7
100
AcDbLine
 10
7.946257
 20
12.148476
 30
0.0
 11
7.946257
 21
15.028476
 31
0.0
  0
LINE
  5
293
100
AcDbEntity
  8
0
 62
7
100
AcDbLine
 10
7.946257
 20
15.028476
 30
0.0
 11
7.946257
 21
17.908476
 31
0.0
  0
LINE
  5
294
100
AcDbEntity
  8
0
 62
7
100
AcDbLine
 10
7.946257
 20
17.908476
 30
0.0
 11
8.296534
 21
17.908476
 31
0.0
  0
LINE
  5
295
100
AcDbEntity
  8
0
 62
7
100
AcDbLine
 10
8.296534
 20
17.908476
 30
0.0
 11
8.646808
 21
17.908476
 31
0.0
  0
LINE
  5
296
100
AcDbEntity
  8
0
 62
7
100
AcDbLine
 10
8.646808
 20
17.908476
 30
0.0
 11
8.646808
 21
17.808477
 31
0.0
  0
LINE
  5
297
100
AcDbEntity
  8
0
 62
7
100
AcDbLine
 10
8.646808
 20
17.808477
 30
0.0
 11
8.646808
 21
17.708478
 31
0.0
  0
LINE
  5
298
100
AcDbEntity
  8
0
 62
7
100
AcDbLine
 10
8.646808
 20
17.708478
 30
0.0
 11
9.527503
 21
17.708478
 31
0.0
  0
LINE
  5
299
100
AcDbEntity
  8
0
 62
7
100
AcDbLine
 10
9.527503
 20
17.708478
 30
0.0
 11
10.408195
 21
17.708478
 31
0.0
  0
LINE
  5
29a
100
AcDbEntity
  8
0
 62
7
100
AcDbLine
 10
10.408195
 20
17.708478
 30
0.0
 11
10.408195
 21
18.088478
 31
0.0
  0
LINE
  5
29b
100
AcDbEntity
  8
0
 62
7
100
AcDbLine
 10
10.408195
 20
18.088478
 30
0.0
 11
10.408195
 21
18.468478
 31
0.0
  0
LINE
  5
29c
100
AcDbEntity
  8
0
 62
7
100
AcDbLine
 10
10.408195
 20
18.468478
 30
0.0
 11
9.527503
 21
18.468478
 31
0.0
  0
LINE
  5
29d
100
AcDbEntity
  8
0
 62
7
100
AcDbLine
 10
9.527503
 20
18.468478
 30
0.0
 11
8.646808
 21
18.468478
 31
0.0
  0
LINE
  5
29e
100
AcDbEntity
  8
0
 62
7
100
AcDbLine
 10
8.646808
 20
18.468478
 30
0.0
 11
8.646808
 21
18.378477
 31
0.0
  0
LINE
  5
29f
100
AcDbEntity
  8
0
 62
7
100
AcDbLine
 10
8.646808
 20
18.378477
 30
0.0
 11
8.646808
 21
18.288479
 31
0.0
  0
LINE
  5
2a0
100
AcDbEntity
  8
0
 62
7
100
AcDbLine
 10
8.646808
 20
18.288479
 30
0.0
 11
8.106383
 21
18.288479
 31
0.0
  0
LINE
  5
2a1
100
AcDbEntity
  8
0
 62
7
100
AcDbLine
 10
8.106383
 20
18.288479
 30
0.0
 11
7.565959
 21
18.288479
 31
0.0
  0
LINE
  5
2a2
100
AcDbEntity
  8
0
 62
7
100
AcDbLine
 10
7.565959
 20
18.288479
 30
0.0
 11
7.565959
 21
15.218476
 31
0.0
  0
LINE
  5
2a3
100
AcDbEntity
  8
0
 62
7
100
AcDbLine
 10
7.565959
 20
15.218476
 30
0.0
 11
7.565959
 21
12.148476
 31
0.0
  0
LINE
  5
2a4
100
AcDbEntity
  8
0
 62
7
100
AcDbLine
 10
7.565959
 20
12.148476
 30
0.0
 11
7.275729
 21
12.148476
 31
0.0
  0
LINE
  5
2a5
100
AcDbEntity
  8
0
 62
7
100
AcDbLine
 10
7.275729
 20
12.148476
 30
0.0
 11
6.985500
 21
12.148476
 31
0.0
  0
LINE
  5
2a6
100
AcDbEntity
  8
0
 62
7
100
AcDbLine
 10
6.985500
 20
12.148476
 30
0.0
 11
6.985500
 21
11.988477
 31
0.0
  0
LINE
  5
2a7
100
AcDbEntity
  8
0
 62
7
100
AcDbLine
 10
6.985500
 20
11.988477
 30
0.0
 11
6.985500
 21
11.828478
 31
0.0
  0
LINE
  5
2a8
100
AcDbEntity
  8
0
 62
7
100
AcDbLine
 10
6.985500
 20
11.828478
 30
0.0
 11
6.385028
 21
11.828478
 31
0.0
  0
LINE
  5
2a9
100
AcDbEntity
  8
0
 62
7
100
AcDbLine
 10
6.385028
 20
11.828478
 30
0.0
 11
5.784556
 21
11.828478
 31
0.0
  0
LINE
  5
2aa
100
AcDbEntity
  8
0
 62
7
100
AcDbLine
 10
5.784556
 20
11.828478
 30
0.0
 11
5.784556
 21
9.818476
 31
0.0
  0
LINE
  5
2ab
100
AcDbEntity
  8
0
 62
7
100
AcDbLine
 10
5.784556
 20
9.818476
 30
0.0
 11
5.784556
 21
7.808476
 31
0.0
  0
LINE
  5
2ac
100
AcDbEntity
  8
0
 62
7
100
AcDbLine
 10
5.784556
 20
7.808476
 30
0.0
 11
5.444286
 21
7.808476
 31
0.0
  0
LINE
  5
2ad
100
AcDbEntity
  8
0
 62
7
100
AcDbLine
 10
5.444286
 20
7.808476
 30
0.0
 11
5.104019
 21
7.808476
 31
0.0
  0
LINE
  5
2ae
100
AcDbEntity
  8
0
 62
7
100
AcDbLine
 10
5.104019
 20
7.808476
 30
0.0
 11
5.104019
 21
6.998478
 31
0.0
  0
LINE
  5
2af
100
AcDbEntity
  8
0
 62
7
100
AcDbLine
 10
5.104019
 20
6.998478
 30
0.0
 11
5.104019
 21
6.188477
 31
0.0
  0
LINE
  5
2b0
100
AcDbEntity
  8
0
 62
7
100
AcDbLine
 10
5.104019
 20
6.188477
 30
0.0
 11
5.974704
 21
6.188477
 31
0.0
  0
LINE
  5
2b1
100
AcDbEntity
  8
0
 62
7
100
AcDbLine
 10
5.974704
 20
6.188477
 30
0.0
 11
6.845390
 21
6.188477
 31
0.0
  0
LINE
  5
2b2
100
AcDbEntity
  8
0
 62
7
100
AcDbLine
 10
6.845390
 20
6.188477
 30
0.0
 11
6.845390
 21
6.998478
 31
0.0
  0
LINE
  5
2b3
100
AcDbEntity
  8
0
 62
7
100
AcDbLine
 10
14.471395
 20
10.918476
 30
0.0
 11
14.471395
 21
12.188478
 31
0.0
  0
LINE
  5
2b4
100
AcDbEntity
  8
0
 62
7
100
AcDbLine
 10
14.471395
 20
12.188478
 30
0.0
 11
14.251222
 21
12.188478
 31
0.0
  0
LINE
  5
2b5
100
AcDbEntity
  8
0
 62
7
100
AcDbLine
 10
14.251222
 20
12.188478
 30
0.0
 11
14.031048
 21
12.188478
 31
0.0
  0
LINE
  5
2b6
100
AcDbEntity
  8
0
 62
7
100
AcDbLine
 10
14.031048
 20
12.188478
 30
0.0
 11
14.031048
 21
13.778476
 31
0.0
  0
LINE
  5
2b7
100
AcDbEntity
  8
0
 62
7
100
AcDbLine
 10
14.031048
 20
13.778476
 30
0.0
 11
14.031048
 21
15.368476
 31
0.0
  0
LINE
  5
2b8
100
AcDbEntity
  8
0
 62
7
100
AcDbLine
 10
14.031048
 20
15.368476
 30
0.0
 11
14.381324
 21
15.368476
 31
0.0
  0
LINE
  5
2b9
100
AcDbEntity
  8
0
 62
7
100
AcDbLine
 10
14.381324
 20
15.368476
 30
0.0
 11
14.731600
 21
15.368476
 31
0.0
  0
LINE
  5
2ba
100
AcDbEntity
  8
0
 62
7
100
AcDbLine
 10
14.731600
 20
15.368476
 30
0.0
 11
14.731600
 21
15.268477
 31
0.0
  0
LINE
  5
2bb
100
AcDbEntity
  8
0
 62
7
100
AcDbLine
 10
14.731600
 20
15.268477
 30
0.0
 11
14.731600
 21
15.168478
 31
0.0
  0
LINE
  5
2bc
100
AcDbEntity
  8
0
 62
7
100
AcDbLine
 10
14.731600
 20
15.168478
 30
0.0
 11
15.622301
 21
15.168478
 31
0.0
  0
LINE
  5
2bd
100
AcDbEntity
  8
0
 62
7
100
AcDbLine
 10
15.622301
 20
15.168478
 30
0.0
 11
16.513003
 21
15.168478
 31
0.0
  0
LINE
  5
2be
100
AcDbEntity
  8
0
 62
7
100
AcDbLine
 10
16.513003
 20
15.168478
 30
0.0
 11
16.513003
 21
15.548478
 31
0.0
  0
LINE
  5
2bf
100
AcDbEntity
  8
0
 62
7
100
AcDbLine
 10
16.513003
 20
15.548478
 30
0.0
 11
16.513003
 21
15.928478
 31
0.0
  0
LINE
  5
2c0
100
AcDbEntity
  8
0
 62
7
100
AcDbLine
 10
16.513003
 20
15.928478
 30
0.0
 11
15.622301
 21
15.928478
 31
0.0
  0
LINE
  5
2c1
100
AcDbEntity
  8
0
 62
7
100
AcDbLine
 10
15.622301
 20
15.928478
 30
0.0
 11
14.731600
 21
15.928478
 31
0.0
  0
LINE
  5
2c2
100
AcDbEntity
  8
0
 62
7
100
AcDbLine
 10
14.731600
 20
15.928478
 30
0.0
 11
14.731600
 21
15.838477
 31
0.0
  0
LINE
  5
2c3
100
AcDbEntity
  8
0
 62
7
100
AcDbLine
 10
14.731600
 20
15.838477
 30
0.0
 11
14.731600
 21
15.748476
 31
0.0
  0
LINE
  5
2c4
100
AcDbEntity
  8
0
 62
7
100
AcDbLine
 10
14.731600
 20
15.748476
 30
0.0
 11
14.191174
 21
15.748476
 31
0.0
  0
LINE
  5
2c5
100
AcDbEntity
  8
0
 62
7
100
AcDbLine
 10
14.191174
 20
15.748476
 30
0.0
 11
13.650748
 21
15.748476
 31
0.0
  0
LINE
  5
2c6
100
AcDbEntity
  8
0
 62
7
100
AcDbLine
 10
13.650748
 20
15.748476
 30
0.0
 11
13.650748
 21
13.968476
 31
0.0
  0
LINE
  5
2c7
100
AcDbEntity
  8
0
 62
7
100
AcDbLine
 10
13.650748
 20
13.968476
 30
0.0
 11
13.650748
 21
12.188478
 31
0.0
  0
LINE
  5
2c8
100
AcDbEntity
  8
0
 62
7
100
AcDbLine
 10
13.650748
 20
12.188478
 30
0.0
 11
13.430575
 21
12.188478
 31
0.0
  0
LINE
  5
2c9
100
AcDbEntity
  8
0
 62
7
100
AcDbLine
 10
13.430575
 20
12.188478
 30
0.0
 11
13.210402
 21
12.188478
 31
0.0
  0
LINE
  5
2ca
100
AcDbEntity
  8
0
 62
7
100
AcDbLine
 10
13.210402
 20
12.188478
 30
0.0
 11
13.210402
 21
10.918476
 31
0.0
  0
LINE
  5
2cb
100
AcDbEntity
  8
0
 62
7
100
AcDbLine
 10
13.210402
 20
10.918476
 30
0.0
 11
13.210402
 21
9.648476
 31
0.0
  0
LINE
  5
2cc
100
AcDbEntity
  8
0
 62
7
100
AcDbLine
 10
13.210402
 20
9.648476
 30
0.0
 11
13.840899
 21
9.648476
 31
0.0
  0
LINE
  5
2cd
100
AcDbEntity
  8
0
 62
7
100
AcDbLine
 10
13.840899
 20
9.648476
 30
0.0
 11
14.471395
 21
9.648476
 31
0.0
  0
LINE
  5
2ce
100
AcDbEntity
  8
0
 62
7
100
AcDbLine
 10
14.471395
 20
9.648476
 30
0.0
 11
14.471395
 21
10.918476
 31
0.0
  0
SPLINE
  5
2cf
100
AcDbEntity
  8
0
 62
7
100
AcDbSpline
 70
8
 71
3
 72
8
 73
4
 74
0
 40
0
 40
0
 40
0
 40
0
 40
1
 40
1
 40
1
 40
1
 10
17.008935
 20
10.993477
 30
0.0
 10
17.003469
 20
12.319220
 30
0.0
 10
17.002775
 20
12.339802
 30
0.0
 10
16.960609
 20
12.430924
 30
0.0
  0
SPLINE
  5
2d0
100
AcDbEntity
  8
0
 62
7
100
AcDbSpline
 70
8
 71
3
 72
8
 73
4
 74
0
 40
0
 40
0
 40
0
 40
0
 40
1
 40
1
 40
1
 40
1
 10
16.960609
 20
12.430924
 30
0.0
 10
16.902109
 20
12.557342
 30
0.0
 10
16.784910
 20
12.681876
 30
0.0
 10
16.669395
 20
12.740367
 30
0.0
  0
LINE
  5
2d1
100
AcDbEntity
  8
0
 62
7
100
AcDbLine
 10
16.669395
 20
12.740367
 30
0.0
 11
16.573050
 21
12.789151
 31
0.0
  0
LINE
  5
2d2
100
AcDbEntity
  8
0
 62
7
100
AcDbLine
 10
16.573050
 20
12.789151
 30
0.0
 11
16.573050
 21
13.628815
 31
0.0
  0
SPLINE
  5
2d3
100
AcDbEntity
  8
0
 62
7
100
AcDbSpline
 70
8
 71
3
 72
8
 73
4
 74
0
 40
0
 40
0
 40
0
 40
0
 40
1
 40
1
 40
1
 40
1
 10
16.573050
 20
13.628815
 30
0.0
 10
16.573050
 20
14.361848
 30
0.0
 10
16.569237
 20
14.468478
 30
0.0
 10
16.543026
 20
14.468478
 30
0.0
  0
SPLINE
  5
2d4
100
AcDbEntity
  8
0
 62
7
100
AcDbSpline
 70
8
 71
3
 72
8
 73
4
 74
0
 40
0
 40
0
 40
0
 40
0
 40
1
 40
1
 40
1
 40
1
 10
16.543026
 20
14.468478
 30
0.0
 10
16.520341
 20
14.468478
 30
0.0
 10
16.513003
 20
14.492925
 30
0.0
 10
16.513003
 20
14.568477
 30
0.0
  0
LINE
  5
2d5
100
AcDbEntity
  8
0
 62
7
100
AcDbLine
 10
16.513003
 20
14.568477
 30
0.0
 11
16.513003
 21
14.668476
 31
0.0
  0
LINE
  5
2d6
100
AcDbEntity
  8
0
 62
7
100
AcDbLine
 10
16.513003
 20
14.668476
 30
0.0
 11
15.622301
 21
14.668476
 31
0.0
  0
LINE
  5
2d7
100
AcDbEntity
  8
0
 62
7
100
AcDbLine
 10
15.622301
 20
14.668476
 30
0.0
 11
14.731600
 21
14.668476
 31
0.0
  0
LINE
  5
2d8
100
AcDbEntity
  8
0
 62
7
100
AcDbLine
 10
14.731600
 20
14.668476
 30
0.0
 11
14.731600
 21
14.288476
 31
0.0
  0
LINE
  5
2d9
100
AcDbEntity
  8
0
 62
7
100
AcDbLine
 10
14.731600
 20
14.288476
 30
0.0
 11
14.731600
 21
13.908476
 31
0.0
  0
LINE
  5
2da
100
AcDbEntity
  8
0
 62
7
100
AcDbLine
 10
14.731600
 20
13.908476
 30
0.0
 11
15.462175
 21
13.908476
 31
0.0
  0
LINE
  5
2db
100
AcDbEntity
  8
0
 62
7
100
AcDbLine
 10
15.462175
 20
13.908476
 30
0.0
 11
16.192751
 21
13.908476
 31
0.0
  0
LINE
  5
2dc
100
AcDbEntity
  8
0
 62
7
100
AcDbLine
 10
16.192751
 20
13.908476
 30
0.0
 11
16.192751
 21
13.350261
 31
0.0
  0
LINE
  5
2dd
100
AcDbEntity
  8
0
 62
7
100
AcDbLine
 10
16.192751
 20
13.350261
 30
0.0
 11
16.192751
 21
12.792046
 31
0.0
  0
LINE
  5
2de
100
AcDbEntity
  8
0
 62
7
100
AcDbLine
 10
16.192751
 20
12.792046
 30
0.0
 11
16.097992
 21
12.746209
 31
0.0
  0
SPLINE
  5
2df
100
AcDbEntity
  8
0
 62
7
100
AcDbSpline
 70
8
 71
3
 72
8
 73
4
 74
0
 40
0
 40
0
 40
0
 40
0
 40
1
 40
1
 40
1
 40
1
 10
16.097992
 20
12.746209
 30
0.0
 10
15.966321
 20
12.682519
 30
0.0
 10
15.843159
 20
12.549349
 30
0.0
 10
15.793656
 20
12.417147
 30
0.0
  0
SPLINE
  5
2e0
100
AcDbEntity
  8
0
 62
7
100
AcDbSpline
 70
8
 71
3
 72
8
 73
4
 74
0
 40
0
 40
0
 40
0
 40
0
 40
1
 40
1
 40
1
 40
1
 10
15.793656
 20
12.417147
 30
0.0
 10
15.753517
 20
12.309949
 30
0.0
 10
15.752404
 20
12.271118
 30
0.0
 10
15.752404
 20
10.977727
 30
0.0
  0
LINE
  5
2e1
100
AcDbEntity
  8
0
 62
7
100
AcDbLine
 10
15.752404
 20
10.977727
 30
0.0
 11
15.752404
 21
9.648476
 31
0.0
  0
LINE
  5
2e2
100
AcDbEntity
  8
0
 62
7
100
AcDbLine
 10
15.752404
 20
9.648476
 30
0.0
 11
16.383442
 21
9.648476
 31
0.0
  0
LINE
  5
2e3
100
AcDbEntity
  8
0
 62
7
100
AcDbLine
 10
16.383442
 20
9.648476
 30
0.0
 11
17.014481
 21
9.648476
 31
0.0
  0
LINE
  5
2e4
100
AcDbEntity
  8
0
 62
7
100
AcDbLine
 10
17.014481
 20
9.648476
 30
0.0
 11
17.008935
 21
10.993477
 31
0.0
  0
LINE
  5
2e5
100
AcDbEntity
  8
0
 62
7
100
AcDbLine
 10
3.762962
 20
17.078478
 30
0.0
 11
3.762962
 21
19.228477
 31
0.0
  0
LINE
  5
2e6
100
AcDbEntity
  8
0
 62
7
100
AcDbLine
 10
3.762962
 20
19.228477
 30
0.0
 11
3.652877
 21
19.228477
 31
0.0
  0
LINE
  5
2e7
100
AcDbEntity
  8
0
 62
7
100
AcDbLine
 10
3.652877
 20
19.228477
 30
0.0
 11
3.542789
 21
19.228477
 31
0.0
  0
LINE
  5
2e8
100
AcDbEntity
  8
0
 62
7
100
AcDbLine
 10
3.542789
 20
19.228477
 30
0.0
 11
3.542789
 21
19.838476
 31
0.0
  0
LINE
  5
2e9
100
AcDbEntity
  8
0
 62
7
100
AcDbLine
 10
3.542789
 20
19.838476
 30
0.0
 11
3.542789
 21
20.448476
 31
0.0
  0
LINE
  5
2ea
100
AcDbEntity
  8
0
 62
7
100
AcDbLine
 10
3.542789
 20
20.448476
 30
0.0
 11
6.094799
 21
20.448476
 31
0.0
  0
LINE
  5
2eb
100
AcDbEntity
  8
0
 62
7
100
AcDbLine
 10
6.094799
 20
20.448476
 30
0.0
 11
8.646808
 21
20.448476
 31
0.0
  0
LINE
  5
2ec
100
AcDbEntity
  8
0
 62
7
100
AcDbLine
 10
8.646808
 20
20.448476
 30
0.0
 11
8.646808
 21
20.348476
 31
0.0
  0
LINE
  5
2ed
100
AcDbEntity
  8
0
 62
7
100
AcDbLine
 10
8.646808
 20
20.348476
 30
0.0
 11
8.646808
 21
20.248476
 31
0.0
  0
LINE
  5
2ee
100
AcDbEntity
  8
0
 62
7
100
AcDbLine
 10
8.646808
 20
20.248476
 30
0.0
 11
9.527503
 21
20.248476
 31
0.0
  0
LINE
  5
2ef
100
AcDbEntity
  8
0
 62
7
100
AcDbLine
 10
9.527503
 20
20.248476
 30
0.0
 11
10.408195
 21
20.248476
 31
0.0
  0
LINE
  5
2f0
100
AcDbEntity
  8
0
 62
7
100
AcDbLine
 10
10.408195
 20
20.248476
 30
0.0
 11
10.408195
 21
20.628476
 31
0.0
  0
LINE
  5
2f1
100
AcDbEntity
  8
0
 62
7
100
AcDbLine
 10
10.408195
 20
20.628476
 30
0.0
 11
10.408195
 21
21.008476
 31
0.0
  0
LINE
  5
2f2
100
AcDbEntity
  8
0
 62
7
100
AcDbLine
 10
10.408195
 20
21.008476
 30
0.0
 11
9.527503
 21
21.008476
 31
0.0
  0
LINE
  5
2f3
100
AcDbEntity
  8
0
 62
7
100
AcDbLine
 10
9.527503
 20
21.008476
 30
0.0
 11
8.646808
 21
21.008476
 31
0.0
  0
LINE
  5
2f4
100
AcDbEntity
  8
0
 62
7
100
AcDbLine
 10
8.646808
 20
21.008476
 30
0.0
 11
8.646808
 21
20.918476
 31
0.0
  0
LINE
  5
2f5
100
AcDbEntity
  8
0
 62
7
100
AcDbLine
 10
8.646808
 20
20.918476
 30
0.0
 11
8.646808
 21
20.828476
 31
0.0
  0
LINE
  5
2f6
100
AcDbEntity
  8
0
 62
7
100
AcDbLine
 10
8.646808
 20
20.828476
 30
0.0
 11
5.904650
 21
20.828476
 31
0.0
  0
LINE
  5
2f7
100
AcDbEntity
  8
0
 62
7
100
AcDbLine
 10
5.904650
 20
20.828476
 30
0.0
 11
3.162490
 21
20.828476
 31
0.0
  0
LINE
  5
2f8
100
AcDbEntity
  8
0
 62
7
100
AcDbLine
 10
3.162490
 20
20.828476
 30
0.0
 11
3.162490
 21
20.028476
 31
0.0
  0
LINE
  5
2f9
100
AcDbEntity
  8
0
 62
7
100
AcDbLine
 10
3.162490
 20
20.028476
 30
0.0
 11
3.162490
 21
19.228477
 31
0.0
  0
LINE
  5
2fa
100
AcDbEntity
  8
0
 62
7
100
AcDbLine
 10
3.162490
 20
19.228477
 30
0.0
 11
3.062412
 21
19.228477
 31
0.0
  0
LINE
  5
2fb
100
AcDbEntity
  8
0
 62
7
100
AcDbLine
 10
3.062412
 20
19.228477
 30
0.0
 11
2.962333
 21
19.228477
 31
0.0
  0
LINE
  5
2fc
100
AcDbEntity
  8
0
 62
7
100
AcDbLine
 10
2.962333
 20
19.228477
 30
0.0
 11
2.962333
 21
17.078478
 31
0.0
  0
LINE
  5
2fd
100
AcDbEntity
  8
0
 62
7
100
AcDbLine
 10
2.962333
 20
17.078478
 30
0.0
 11
2.962333
 21
14.928477
 31
0.0
  0
LINE
  5
2fe
100
AcDbEntity
  8
0
 62
7
100
AcDbLine
 10
2.962333
 20
14.928477
 30
0.0
 11
3.362648
 21
14.928477
 31
0.0
  0
LINE
  5
2ff
100
AcDbEntity
  8
0
 62
7
100
AcDbLine
 10
3.362648
 20
14.928477
 30
0.0
 11
3.762962
 21
14.928477
 31
0.0
  0
LINE
  5
300
100
AcDbEntity
  8
0
 62
7
100
AcDbLine
 10
3.762962
 20
14.928477
 30
0.0
 11
3.762962
 21
17.078478
 31
0.0
  0
LINE
  5
301
100
AcDbEntity
  8
0
 62
7
100
AcDbLine
 10
6.465091
 20
17.048477
 30
0.0
 11
6.465091
 21
19.168477
 31
0.0
  0
LINE
  5
302
100
AcDbEntity
  8
0
 62
7
100
AcDbLine
 10
6.465091
 20
19.168477
 30
0.0
 11
7.555949
 21
19.168477
 31
0.0
  0
LINE
  5
303
100
AcDbEntity
  8
0
 62
7
100
AcDbLine
 10
7.555949
 20
19.168477
 30
0.0
 11
8.646808
 21
19.168477
 31
0.0
  0
LINE
  5
304
100
AcDbEntity
  8
0
 62
7
100
AcDbLine
 10
8.646808
 20
19.168477
 30
0.0
 11
8.646808
 21
19.078477
 31
0.0
  0
LINE
  5
305
100
AcDbEntity
  8
0
 62
7
100
AcDbLine
 10
8.646808
 20
19.078477
 30
0.0
 11
8.646808
 21
18.988476
 31
0.0
  0
LINE
  5
306
100
AcDbEntity
  8
0
 62
7
100
AcDbLine
 10
8.646808
 20
18.988476
 30
0.0
 11
9.527503
 21
18.988476
 31
0.0
  0
LINE
  5
307
100
AcDbEntity
  8
0
 62
7
100
AcDbLine
 10
9.527503
 20
18.988476
 30
0.0
 11
10.408195
 21
18.988476
 31
0.0
  0
LINE
  5
308
100
AcDbEntity
  8
0
 62
7
100
AcDbLine
 10
10.408195
 20
18.988476
 30
0.0
 11
10.408195
 21
19.368476
 31
0.0
  0
LINE
  5
309
100
AcDbEntity
  8
0
 62
7
100
AcDbLine
 10
10.408195
 20
19.368476
 30
0.0
 11
10.408195
 21
19.748476
 31
0.0
  0
LINE
  5
30a
100
AcDbEntity
  8
0
 62
7
100
AcDbLine
 10
10.408195
 20
19.748476
 30
0.0
 11
9.527503
 21
19.748476
 31
0.0
  0
LINE
  5
30b
100
AcDbEntity
  8
0
 62
7
100
AcDbLine
 10
9.527503
 20
19.748476
 30
0.0
 11
8.646808
 21
19.748476
 31
0.0
  0
LINE
  5
30c
100
AcDbEntity
  8
0
 62
7
100
AcDbLine
 10
8.646808
 20
19.748476
 30
0.0
 11
8.646808
 21
19.648476
 31
0.0
  0
LINE
  5
30d
100
AcDbEntity
  8
0
 62
7
100
AcDbLine
 10
8.646808
 20
19.648476
 30
0.0
 11
8.646808
 21
19.548477
 31
0.0
  0
LINE
  5
30e
100
AcDbEntity
  8
0
 62
7
100
AcDbLine
 10
8.646808
 20
19.548477
 30
0.0
 11
7.255713
 21
19.548477
 31
0.0
  0
LINE
  5
30f
100
AcDbEntity
  8
0
 62
7
100
AcDbLine
 10
7.255713
 20
19.548477
 30
0.0
 11
5.864619
 21
19.548477
 31
0.0
  0
LINE
  5
310
100
AcDbEntity
  8
0
 62
7
100
AcDbLine
 10
5.864619
 20
19.548477
 30
0.0
 11
5.864619
 21
19.388476
 31
0.0
  0
LINE
  5
311
100
AcDbEntity
  8
0
 62
7
100
AcDbLine
 10
5.864619
 20
19.388476
 30
0.0
 11
5.864619
 21
19.228477
 31
0.0
  0
LINE
  5
312
100
AcDbEntity
  8
0
 62
7
100
AcDbLine
 10
5.864619
 20
19.228477
 30
0.0
 11
5.754531
 21
19.228477
 31
0.0
  0
LINE
  5
313
100
AcDbEntity
  8
0
 62
7
100
AcDbLine
 10
5.754531
 20
19.228477
 30
0.0
 11
5.644446
 21
19.228477
 31
0.0
  0
LINE
  5
314
100
AcDbEntity
  8
0
 62
7
100
AcDbLine
 10
5.644446
 20
19.228477
 30
0.0
 11
5.644446
 21
17.078478
 31
0.0
  0
LINE
  5
315
100
AcDbEntity
  8
0
 62
7
100
AcDbLine
 10
5.644446
 20
17.078478
 30
0.0
 11
5.644446
 21
14.928477
 31
0.0
  0
LINE
  5
316
100
AcDbEntity
  8
0
 62
7
100
AcDbLine
 10
5.644446
 20
14.928477
 30
0.0
 11
6.054767
 21
14.928477
 31
0.0
  0
LINE
  5
317
100
AcDbEntity
  8
0
 62
7
100
AcDbLine
 10
6.054767
 20
14.928477
 30
0.0
 11
6.465091
 21
14.928477
 31
0.0
  0
LINE
  5
318
100
AcDbEntity
  8
0
 62
7
100
AcDbLine
 10
6.465091
 20
14.928477
 30
0.0
 11
6.465091
 21
17.048477
 31
0.0
  0
LINE
  5
319
100
AcDbEntity
  8
0
 62
7
100
AcDbLine
 10
10.408195
 20
15.268477
 30
0.0
 11
10.408195
 21
15.368476
 31
0.0
  0
LINE
  5
31a
100
AcDbEntity
  8
0
 62
7
100
AcDbLine
 10
10.408195
 20
15.368476
 30
0.0
 11
10.948622
 21
15.368476
 31
0.0
  0
LINE
  5
31b
100
AcDbEntity
  8
0
 62
7
100
AcDbLine
 10
10.948622
 20
15.368476
 30
0.0
 11
11.489047
 21
15.368476
 31
0.0
  0
LINE
  5
31c
100
AcDbEntity
  8
0
 62
7
100
AcDbLine
 10
11.489047
 20
15.368476
 30
0.0
 11
11.489047
 21
19.708476
 31
0.0
  0
LINE
  5
31d
100
AcDbEntity
  8
0
 62
7
100
AcDbLine
 10
11.489047
 20
19.708476
 30
0.0
 11
11.489047
 21
24.048477
 31
0.0
  0
LINE
  5
31e
100
AcDbEntity
  8
0
 62
7
100
AcDbLine
 10
11.489047
 20
24.048477
 30
0.0
 11
11.829314
 21
24.048477
 31
0.0
  0
LINE
  5
31f
100
AcDbEntity
  8
0
 62
7
100
AcDbLine
 10
11.829314
 20
24.048477
 30
0.0
 11
12.169582
 21
24.048477
 31
0.0
  0
LINE
  5
320
100
AcDbEntity
  8
0
 62
7
100
AcDbLine
 10
12.169582
 20
24.048477
 30
0.0
 11
12.169582
 21
24.868477
 31
0.0
  0
LINE
  5
321
100
AcDbEntity
  8
0
 62
7
100
AcDbLine
 10
12.169582
 20
24.868477
 30
0.0
 11
12.169582
 21
25.688477
 31
0.0
  0
LINE
  5
322
100
AcDbEntity
  8
0
 62
7
100
AcDbLine
 10
12.169582
 20
25.688477
 30
0.0
 11
11.308905
 21
25.688477
 31
0.0
  0
LINE
  5
323
100
AcDbEntity
  8
0
 62
7
100
AcDbLine
 10
11.308905
 20
25.688477
 30
0.0
 11
10.448226
 21
25.688477
 31
0.0
  0
LINE
  5
324
100
AcDbEntity
  8
0
 62
7
100
AcDbLine
 10
10.448226
 20
25.688477
 30
0.0
 11
10.448226
 21
24.868477
 31
0.0
  0
LINE
  5
325
100
AcDbEntity
  8
0
 62
7
100
AcDbLine
 10
10.448226
 20
24.868477
 30
0.0
 11
10.448226
 21
24.048477
 31
0.0
  0
LINE
  5
326
100
AcDbEntity
  8
0
 62
7
100
AcDbLine
 10
10.448226
 20
24.048477
 30
0.0
 11
10.778487
 21
24.048477
 31
0.0
  0
LINE
  5
327
100
AcDbEntity
  8
0
 62
7
100
AcDbLine
 10
10.778487
 20
24.048477
 30
0.0
 11
11.108748
 21
24.048477
 31
0.0
  0
LINE
  5
328
100
AcDbEntity
  8
0
 62
7
100
AcDbLine
 10
11.108748
 20
24.048477
 30
0.0
 11
11.108748
 21
20.528476
 31
0.0
  0
LINE
  5
329
100
AcDbEntity
  8
0
 62
7
100
AcDbLine
 10
11.108748
 20
20.528476
 30
0.0
 11
11.108748
 21
17.008478
 31
0.0
  0
LINE
  5
32a
100
AcDbEntity
  8
0
 62
7
100
AcDbLine
 10
11.108748
 20
17.008478
 30
0.0
 11
10.758471
 21
17.008478
 31
0.0
  0
LINE
  5
32b
100
AcDbEntity
  8
0
 62
7
100
AcDbLine
 10
10.758471
 20
17.008478
 30
0.0
 11
10.408195
 21
17.008478
 31
0.0
  0
LINE
  5
32c
100
AcDbEntity
  8
0
 62
7
100
AcDbLine
 10
10.408195
 20
17.008478
 30
0.0
 11
10.408195
 21
17.108477
 31
0.0
  0
LINE
  5
32d
100
AcDbEntity
  8
0
 62
7
100
AcDbLine
 10
10.408195
 20
17.108477
 30
0.0
 11
10.408195
 21
17.208479
 31
0.0
  0
LINE
  5
32e
100
AcDbEntity
  8
0
 62
7
100
AcDbLine
 10
10.408195
 20
17.208479
 30
0.0
 11
9.527503
 21
17.208479
 31
0.0
  0
LINE
  5
32f
100
AcDbEntity
  8
0
 62
7
100
AcDbLine
 10
9.527503
 20
17.208479
 30
0.0
 11
8.646808
 21
17.208479
 31
0.0
  0
LINE
  5
330
100
AcDbEntity
  8
0
 62
7
100
AcDbLine
 10
8.646808
 20
17.208479
 30
0.0
 11
8.646808
 21
16.828476
 31
0.0
  0
LINE
  5
331
100
AcDbEntity
  8
0
 62
7
100
AcDbLine
 10
8.646808
 20
16.828476
 30
0.0
 11
8.646808
 21
16.448476
 31
0.0
  0
LINE
  5
332
100
AcDbEntity
  8
0
 62
7
100
AcDbLine
 10
8.646808
 20
16.448476
 30
0.0
 11
9.527503
 21
16.448476
 31
0.0
  0
LINE
  5
333
100
AcDbEntity
  8
0
 62
7
100
AcDbLine
 10
9.527503
 20
16.448476
 30
0.0
 11
10.408195
 21
16.448476
 31
0.0
  0
LINE
  5
334
100
AcDbEntity
  8
0
 62
7
100
AcDbLine
 10
10.408195
 20
16.448476
 30
0.0
 11
10.408195
 21
16.538477
 31
0.0
  0
LINE
  5
335
100
AcDbEntity
  8
0
 62
7
100
AcDbLine
 10
10.408195
 20
16.538477
 30
0.0
 11
10.408195
 21
16.628478
 31
0.0
  0
LINE
  5
336
100
AcDbEntity
  8
0
 62
7
100
AcDbLine
 10
10.408195
 20
16.628478
 30
0.0
 11
10.758471
 21
16.628478
 31
0.0
  0
LINE
  5
337
100
AcDbEntity
  8
0
 62
7
100
AcDbLine
 10
10.758471
 20
16.628478
 30
0.0
 11
11.108748
 21
16.628478
 31
0.0
  0
LINE
  5
338
100
AcDbEntity
  8
0
 62
7
100
AcDbLine
 10
11.108748
 20
16.628478
 30
0.0
 11
11.108748
 21
16.188478
 31
0.0
  0
LINE
  5
339
100
AcDbEntity
  8
0
 62
7
100
AcDbLine
 10
11.108748
 20
16.188478
 30
0.0
 11
11.108748
 21
15.748476
 31
0.0
  0
LINE
  5
33a
100
AcDbEntity
  8
0
 62
7
100
AcDbLine
 10
11.108748
 20
15.748476
 30
0.0
 11
10.758471
 21
15.748476
 31
0.0
  0
LINE
  5
33b
100
AcDbEntity
  8
0
 62
7
100
AcDbLine
 10
10.758471
 20
15.748476
 30
0.0
 11
10.408195
 21
15.748476
 31
0.0
  0
LINE
  5
33c
100
AcDbEntity
  8
0
 62
7
100
AcDbLine
 10
10.408195
 20
15.748476
 30
0.0
 11
10.408195
 21
15.838477
 31
0.0
  0
LINE
  5
33d
100
AcDbEntity
  8
0
 62
7
100
AcDbLine
 10
10.408195
 20
15.838477
 30
0.0
 11
10.408195
 21
15.928478
 31
0.0
  0
LINE
  5
33e
100
AcDbEntity
  8
0
 62
7
100
AcDbLine
 10
10.408195
 20
15.928478
 30
0.0
 11
9.527503
 21
15.928478
 31
0.0
  0
LINE
  5
33f
100
AcDbEntity
  8
0
 62
7
100
AcDbLine
 10
9.527503
 20
15.928478
 30
0.0
 11
8.646808
 21
15.928478
 31
0.0
  0
LINE
  5
340
100
AcDbEntity
  8
0
 62
7
100
AcDbLine
 10
8.646808
 20
15.928478
 30
0.0
 11
8.646808
 21
15.548478
 31
0.0
  0
LINE
  5
341
100
AcDbEntity
  8
0
 62
7
100
AcDbLine
 10
8.646808
 20
15.548478
 30
0.0
 11
8.646808
 21
15.168478
 31
0.0
  0
LINE
  5
342
100
AcDbEntity
  8
0
 62
7
100
AcDbLine
 10
8.646808
 20
15.168478
 30
0.0
 11
9.527503
 21
15.168478
 31
0.0
  0
LINE
  5
343
100
AcDbEntity
  8
0
 62
7
100
AcDbLine
 10
9.527503
 20
15.168478
 30
0.0
 11
10.408195
 21
15.168478
 31
0.0
  0
LINE
  5
344
100
AcDbEntity
  8
0
 62
7
100
AcDbLine
 10
10.408195
 20
15.168478
 30
0.0
 11
10.408195
 21
15.268477
 31
0.0
  0
LINE
  5
345
100
AcDbEntity
  8
0
 62
7
100
AcDbLine
 10
16.513003
 20
18.088478
 30
0.0
 11
16.513003
 21
18.468478
 31
0.0
  0
LINE
  5
346
100
AcDbEntity
  8
0
 62
7
100
AcDbLine
 10
16.513003
 20
18.468478
 30
0.0
 11
15.622301
 21
18.468478
 31
0.0
  0
LINE
  5
347
100
AcDbEntity
  8
0
 62
7
100
AcDbLine
 10
15.622301
 20
18.468478
 30
0.0
 11
14.731600
 21
18.468478
 31
0.0
  0
LINE
  5
348
100
AcDbEntity
  8
0
 62
7
100
AcDbLine
 10
14.731600
 20
18.468478
 30
0.0
 11
14.731600
 21
18.088478
 31
0.0
  0
LINE
  5
349
100
AcDbEntity
  8
0
 62
7
100
AcDbLine
 10
14.731600
 20
18.088478
 30
0.0
 11
14.731600
 21
17.708478
 31
0.0
  0
LINE
  5
34a
100
AcDbEntity
  8
0
 62
7
100
AcDbLine
 10
14.731600
 20
17.708478
 30
0.0
 11
15.622301
 21
17.708478
 31
0.0
  0
LINE
  5
34b
100
AcDbEntity
  8
0
 62
7
100
AcDbLine
 10
15.622301
 20
17.708478
 30
0.0
 11
16.513003
 21
17.708478
 31
0.0
  0
LINE
  5
34c
100
AcDbEntity
  8
0
 62
7
100
AcDbLine
 10
16.513003
 20
17.708478
 30
0.0
 11
16.513003
 21
18.088478
 31
0.0
  0
LINE
  5
34d
100
AcDbEntity
  8
0
 62
7
100
AcDbLine
 10
16.513003
 20
19.368476
 30
0.0
 11
16.513003
 21
19.748476
 31
0.0
  0
LINE
  5
34e
100
AcDbEntity
  8
0
 62
7
100
AcDbLine
 10
16.513003
 20
19.748476
 30
0.0
 11
15.622301
 21
19.748476
 31
0.0
  0
LINE
  5
34f
100
AcDbEntity
  8
0
 62
7
100
AcDbLine
 10
15.622301
 20
19.748476
 30
0.0
 11
14.731600
 21
19.748476
 31
0.0
  0
LINE
  5
350
100
AcDbEntity
  8
0
 62
7
100
AcDbLine
 10
14.731600
 20
19.748476
 30
0.0
 11
14.731600
 21
19.368476
 31
0.0
  0
LINE
  5
351
100
AcDbEntity
  8
0
 62
7
100
AcDbLine
 10
14.731600
 20
19.368476
 30
0.0
 11
14.731600
 21
18.988476
 31
0.0
  0
LINE
  5
352
100
AcDbEntity
  8
0
 62
7
100
AcDbLine
 10
14.731600
 20
18.988476
 30
0.0
 11
15.622301
 21
18.988476
 31
0.0
  0
LINE
  5
353
100
AcDbEntity
  8
0
 62
7
100
AcDbLine
 10
15.622301
 20
18.988476
 30
0.0
 11
16.513003
 21
18.988476
 31
0.0
  0
LINE
  5
354
100
AcDbEntity
  8
0
 62
7
100
AcDbLine
 10
16.513003
 20
18.988476
 30
0.0
 11
16.513003
 21
19.368476
 31
0.0
  0
LINE
  5
355
100
AcDbEntity
  8
0
 62
7
100
AcDbLine
 10
16.513003
 20
20.628476
 30
0.0
 11
16.513003
 21
21.008476
 31
0.0
  0
LINE
  5
356
100
AcDbEntity
  8
0
 62
7
100
AcDbLine
 10
16.513003
 20
21.008476
 30
0.0
 11
15.622301
 21
21.008476
 31
0.0
  0
LINE
  5
357
100
AcDbEntity
  8
0
 62
7
100
AcDbLine
 10
15.622301
 20
21.008476
 30
0.0
 11
14.731600
 21
21.008476
 31
0.0
  0
LINE
  5
358
100
AcDbEntity
  8
0
 62
7
100
AcDbLine
 10
14.731600
 20
21.008476
 30
0.0
 11
14.731600
 21
20.918476
 31
0.0
  0
LINE
  5
359
100
AcDbEntity
  8
0
 62
7
100
AcDbLine
 10
14.731600
 20
20.918476
 30
0.0
 11
14.731600
 21
20.828476
 31
0.0
  0
LINE
  5
35a
100
AcDbEntity
  8
0
 62
7
100
AcDbLine
 10
14.731600
 20
20.828476
 30
0.0
 11
14.251222
 21
20.828476
 31
0.0
  0
LINE
  5
35b
100
AcDbEntity
  8
0
 62
7
100
AcDbLine
 10
14.251222
 20
20.828476
 30
0.0
 11
13.770844
 21
20.828476
 31
0.0
  0
LINE
  5
35c
100
AcDbEntity
  8
0
 62
7
100
AcDbLine
 10
13.770844
 20
20.828476
 30
0.0
 11
13.770844
 21
22.438476
 31
0.0
  0
LINE
  5
35d
100
AcDbEntity
  8
0
 62
7
100
AcDbLine
 10
13.770844
 20
22.438476
 30
0.0
 11
13.770844
 21
24.048477
 31
0.0
  0
LINE
  5
35e
100
AcDbEntity
  8
0
 62
7
100
AcDbLine
 10
13.770844
 20
24.048477
 30
0.0
 11
14.111112
 21
24.048477
 31
0.0
  0
LINE
  5
35f
100
AcDbEntity
  8
0
 62
7
100
AcDbLine
 10
14.111112
 20
24.048477
 30
0.0
 11
14.451379
 21
24.048477
 31
0.0
  0
LINE
  5
360
100
AcDbEntity
  8
0
 62
7
100
AcDbLine
 10
14.451379
 20
24.048477
 30
0.0
 11
14.451379
 21
24.868477
 31
0.0
  0
LINE
  5
361
100
AcDbEntity
  8
0
 62
7
100
AcDbLine
 10
14.451379
 20
24.868477
 30
0.0
 11
14.451379
 21
25.688477
 31
0.0
  0
LINE
  5
362
100
AcDbEntity
  8
0
 62
7
100
AcDbLine
 10
14.451379
 20
25.688477
 30
0.0
 11
13.590701
 21
25.688477
 31
0.0
  0
LINE
  5
363
100
AcDbEntity
  8
0
 62
7
100
AcDbLine
 10
13.590701
 20
25.688477
 30
0.0
 11
12.730025
 21
25.688477
 31
0.0
  0
LINE
  5
364
100
AcDbEntity
  8
0
 62
7
100
AcDbLine
 10
12.730025
 20
25.688477
 30
0.0
 11
12.730025
 21
24.868477
 31
0.0
  0
LINE
  5
365
100
AcDbEntity
  8
0
 62
7
100
AcDbLine
 10
12.730025
 20
24.868477
 30
0.0
 11
12.730025
 21
24.048477
 31
0.0
  0
LINE
  5
366
100
AcDbEntity
  8
0
 62
7
100
AcDbLine
 10
12.730025
 20
24.048477
 30
0.0
 11
13.060283
 21
24.048477
 31
0.0
  0
LINE
  5
367
100
AcDbEntity
  8
0
 62
7
100
AcDbLine
 10
13.060283
 20
24.048477
 30
0.0
 11
13.390544
 21
24.048477
 31
0.0
  0
LINE
  5
368
100
AcDbEntity
  8
0
 62
7
100
AcDbLine
 10
13.390544
 20
24.048477
 30
0.0
 11
13.390544
 21
22.248476
 31
0.0
  0
LINE
  5
369
100
AcDbEntity
  8
0
 62
7
100
AcDbLine
 10
13.390544
 20
22.248476
 30
0.0
 11
13.390544
 21
20.448476
 31
0.0
  0
LINE
  5
36a
100
AcDbEntity
  8
0
 62
7
100
AcDbLine
 10
13.390544
 20
20.448476
 30
0.0
 11
14.061072
 21
20.448476
 31
0.0
  0
LINE
  5
36b
100
AcDbEntity
  8
0
 62
7
100
AcDbLine
 10
14.061072
 20
20.448476
 30
0.0
 11
14.731600
 21
20.448476
 31
0.0
  0
LINE
  5
36c
100
AcDbEntity
  8
0
 62
7
100
AcDbLine
 10
14.731600
 20
20.448476
 30
0.0
 11
14.731600
 21
20.348476
 31
0.0
  0
LINE
  5
36d
100
AcDbEntity
  8
0
 62
7
100
AcDbLine
 10
14.731600
 20
20.348476
 30
0.0
 11
14.731600
 21
20.248476
 31
0.0
  0
LINE
  5
36e
100
AcDbEntity
  8
0
 62
7
100
AcDbLine
 10
14.731600
 20
20.248476
 30
0.0
 11
15.622301
 21
20.248476
 31
0.0
  0
LINE
  5
36f
100
AcDbEntity
  8
0
 62
7
100
AcDbLine
 10
15.622301
 20
20.248476
 30
0.0
 11
16.513003
 21
20.248476
 31
0.0
  0
LINE
  5
370
100
AcDbEntity
  8
0
 62
7
100
AcDbLine
 10
16.513003
 20
20.248476
 30
0.0
 11
16.513003
 21
20.628476
 31
0.0
  0
SPLINE
  5
371
100
AcDbEntity
  8
0
 62
7
100
AcDbSpline
 70
8
 71
3
 72
8
 73
4
 74
0
 40
0
 40
0
 40
0
 40
0
 40
1
 40
1
 40
1
 40
1
 10
12.169582
 20
27.418477
 30
0.0
 10
12.169582
 20
27.715143
 30
0.0
 10
12.171434
 20
27.728477
 30
0.0
 10
12.209613
 20
27.728477
 30
0.0
  0
SPLINE
  5
372
100
AcDbEntity
  8
0
 62
7
100
AcDbSpline
 70
8
 71
3
 72
8
 73
4
 74
0
 40
0
 40
0
 40
0
 40
0
 40
1
 40
1
 40
1
 40
1
 10
12.209613
 20
27.728477
 30
0.0
 10
12.249073
 20
27.728477
 30
0.0
 10
12.249645
 20
27.741809
 30
0.0
 10
12.249645
 20
28.658477
 30
0.0
  0
LINE
  5
373
100
AcDbEntity
  8
0
 62
7
100
AcDbLine
 10
12.249645
 20
28.658477
 30
0.0
 11
12.249645
 21
29.588477
 31
0.0
  0
LINE
  5
374
100
AcDbEntity
  8
0
 62
7
100
AcDbLine
 10
12.249645
 20
29.588477
 30
0.0
 11
12.409773
 21
29.588477
 31
0.0
  0
LINE
  5
375
100
AcDbEntity
  8
0
 62
7
100
AcDbLine
 10
12.409773
 20
29.588477
 30
0.0
 11
12.569899
 21
29.588477
 31
0.0
  0
LINE
  5
376
100
AcDbEntity
  8
0
 62
7
100
AcDbLine
 10
12.569899
 20
29.588477
 30
0.0
 11
12.569899
 21
30.198477
 31
0.0
  0
LINE
  5
377
100
AcDbEntity
  8
0
 62
7
100
AcDbLine
 10
12.569899
 20
30.198477
 30
0.0
 11
12.569899
 21
30.808477
 31
0.0
  0
LINE
  5
378
100
AcDbEntity
  8
0
 62
7
100
AcDbLine
 10
12.569899
 20
30.808477
 30
0.0
 11
12.409773
 21
30.808477
 31
0.0
  0
LINE
  5
379
100
AcDbEntity
  8
0
 62
7
100
AcDbLine
 10
12.409773
 20
30.808477
 30
0.0
 11
12.249645
 21
30.808477
 31
0.0
  0
LINE
  5
37a
100
AcDbEntity
  8
0
 62
7
100
AcDbLine
 10
12.249645
 20
30.808477
 30
0.0
 11
12.249645
 21
34.218477
 31
0.0
  0
LINE
  5
37b
100
AcDbEntity
  8
0
 62
7
100
AcDbLine
 10
12.249645
 20
34.218477
 30
0.0
 11
12.249645
 21
37.628478
 31
0.0
  0
LINE
  5
37c
100
AcDbEntity
  8
0
 62
7
100
AcDbLine
 10
12.249645
 20
37.628478
 30
0.0
 11
12.059496
 21
37.628478
 31
0.0
  0
LINE
  5
37d
100
AcDbEntity
  8
0
 62
7
100
AcDbLine
 10
12.059496
 20
37.628478
 30
0.0
 11
11.869346
 21
37.628478
 31
0.0
  0
LINE
  5
37e
100
AcDbEntity
  8
0
 62
7
100
AcDbLine
 10
11.869346
 20
37.628478
 30
0.0
 11
11.869346
 21
34.218477
 31
0.0
  0
LINE
  5
37f
100
AcDbEntity
  8
0
 62
7
100
AcDbLine
 10
11.869346
 20
34.218477
 30
0.0
 11
11.869346
 21
30.808477
 31
0.0
  0
LINE
  5
380
100
AcDbEntity
  8
0
 62
7
100
AcDbLine
 10
11.869346
 20
30.808477
 30
0.0
 11
11.709220
 21
30.808477
 31
0.0
  0
LINE
  5
381
100
AcDbEntity
  8
0
 62
7
100
AcDbLine
 10
11.709220
 20
30.808477
 30
0.0
 11
11.549094
 21
30.808477
 31
0.0
  0
LINE
  5
382
100
AcDbEntity
  8
0
 62
7
100
AcDbLine
 10
11.549094
 20
30.808477
 30
0.0
 11
11.549094
 21
30.198477
 31
0.0
  0
LINE
  5
383
100
AcDbEntity
  8
0
 62
7
100
AcDbLine
 10
11.549094
 20
30.198477
 30
0.0
 11
11.549094
 21
29.588477
 31
0.0
  0
LINE
  5
384
100
AcDbEntity
  8
0
 62
7
100
AcDbLine
 10
11.549094
 20
29.588477
 30
0.0
 11
11.709220
 21
29.588477
 31
0.0
  0
LINE
  5
385
100
AcDbEntity
  8
0
 62
7
100
AcDbLine
 10
11.709220
 20
29.588477
 30
0.0
 11
11.869346
 21
29.588477
 31
0.0
  0
LINE
  5
386
100
AcDbEntity
  8
0
 62
7
100
AcDbLine
 10
11.869346
 20
29.588477
 30
0.0
 11
11.869346
 21
29.158477
 31
0.0
  0
LINE
  5
387
100
AcDbEntity
  8
0
 62
7
100
AcDbLine
 10
11.869346
 20
29.158477
 30
0.0
 11
11.869346
 21
28.728477
 31
0.0
  0
LINE
  5
388
100
AcDbEntity
  8
0
 62
7
100
AcDbLine
 10
11.869346
 20
28.728477
 30
0.0
 11
11.158786
 21
28.728477
 31
0.0
  0
LINE
  5
389
100
AcDbEntity
  8
0
 62
7
100
AcDbLine
 10
11.158786
 20
28.728477
 30
0.0
 11
10.448226
 21
28.728477
 31
0.0
  0
LINE
  5
38a
100
AcDbEntity
  8
0
 62
7
100
AcDbLine
 10
10.448226
 20
28.728477
 30
0.0
 11
10.448226
 21
27.918477
 31
0.0
  0
LINE
  5
38b
100
AcDbEntity
  8
0
 62
7
100
AcDbLine
 10
10.448226
 20
27.918477
 30
0.0
 11
10.448226
 21
27.108477
 31
0.0
  0
LINE
  5
38c
100
AcDbEntity
  8
0
 62
7
100
AcDbLine
 10
10.448226
 20
27.108477
 30
0.0
 11
11.308905
 21
27.108477
 31
0.0
  0
LINE
  5
38d
100
AcDbEntity
  8
0
 62
7
100
AcDbLine
 10
11.308905
 20
27.108477
 30
0.0
 11
12.169582
 21
27.108477
 31
0.0
  0
LINE
  5
38e
100
AcDbEntity
  8
0
 62
7
100
AcDbLine
 10
12.169582
 20
27.108477
 30
0.0
 11
12.169582
 21
27.418477
 31
0.0
  0
LINE
  5
38f
100
AcDbEntity
  8
0
 62
7
100
AcDbLine
 10
14.451379
 20
27.918477
 30
0.0
 11
14.451379
 21
28.728477
 31
0.0
  0
LINE
  5
390
100
AcDbEntity
  8
0
 62
7
100
AcDbLine
 10
14.451379
 20
28.728477
 30
0.0
 11
14.241214
 21
28.728477
 31
0.0
  0
LINE
  5
391
100
AcDbEntity
  8
0
 62
7
100
AcDbLine
 10
14.241214
 20
28.728477
 30
0.0
 11
14.031048
 21
28.728477
 31
0.0
  0
LINE
  5
392
100
AcDbEntity
  8
0
 62
7
100
AcDbLine
 10
14.031048
 20
28.728477
 30
0.0
 11
14.031048
 21
30.048477
 31
0.0
  0
LINE
  5
393
100
AcDbEntity
  8
0
 62
7
100
AcDbLine
 10
14.031048
 20
30.048477
 30
0.0
 11
14.031048
 21
31.368477
 31
0.0
  0
LINE
  5
394
100
AcDbEntity
  8
0
 62
7
100
AcDbLine
 10
14.031048
 20
31.368477
 30
0.0
 11
14.191174
 21
31.368477
 31
0.0
  0
LINE
  5
395
100
AcDbEntity
  8
0
 62
7
100
AcDbLine
 10
14.191174
 20
31.368477
 30
0.0
 11
14.351301
 21
31.368477
 31
0.0
  0
LINE
  5
396
100
AcDbEntity
  8
0
 62
7
100
AcDbLine
 10
14.351301
 20
31.368477
 30
0.0
 11
14.351301
 21
31.978477
 31
0.0
  0
LINE
  5
397
100
AcDbEntity
  8
0
 62
7
100
AcDbLine
 10
14.351301
 20
31.978477
 30
0.0
 11
14.351301
 21
32.588477
 31
0.0
  0
LINE
  5
398
100
AcDbEntity
  8
0
 62
7
100
AcDbLine
 10
14.351301
 20
32.588477
 30
0.0
 11
14.191174
 21
32.588477
 31
0.0
  0
LINE
  5
399
100
AcDbEntity
  8
0
 62
7
100
AcDbLine
 10
14.191174
 20
32.588477
 30
0.0
 11
14.031048
 21
32.588477
 31
0.0
  0
LINE
  5
39a
100
AcDbEntity
  8
0
 62
7
100
AcDbLine
 10
14.031048
 20
32.588477
 30
0.0
 11
14.031048
 21
32.908477
 31
0.0
  0
LINE
  5
39b
100
AcDbEntity
  8
0
 62
7
100
AcDbLine
 10
14.031048
 20
32.908477
 30
0.0
 11
14.031048
 21
33.228477
 31
0.0
  0
LINE
  5
39c
100
AcDbEntity
  8
0
 62
7
100
AcDbLine
 10
14.031048
 20
33.228477
 30
0.0
 11
14.631521
 21
33.228477
 31
0.0
  0
LINE
  5
39d
100
AcDbEntity
  8
0
 62
7
100
AcDbLine
 10
14.631521
 20
33.228477
 30
0.0
 11
15.231994
 21
33.228477
 31
0.0
  0
LINE
  5
39e
100
AcDbEntity
  8
0
 62
7
100
AcDbLine
 10
15.231994
 20
33.228477
 30
0.0
 11
15.231994
 21
34.088477
 31
0.0
  0
LINE
  5
39f
100
AcDbEntity
  8
0
 62
7
100
AcDbLine
 10
15.231994
 20
34.088477
 30
0.0
 11
15.231994
 21
34.948478
 31
0.0
  0
LINE
  5
3a0
100
AcDbEntity
  8
0
 62
7
100
AcDbLine
 10
15.231994
 20
34.948478
 30
0.0
 11
14.421356
 21
34.948478
 31
0.0
  0
LINE
  5
3a1
100
AcDbEntity
  8
0
 62
7
100
AcDbLine
 10
14.421356
 20
34.948478
 30
0.0
 11
13.610717
 21
34.948478
 31
0.0
  0
LINE
  5
3a2
100
AcDbEntity
  8
0
 62
7
100
AcDbLine
 10
13.610717
 20
34.948478
 30
0.0
 11
13.610717
 21
34.608477
 31
0.0
  0
LINE
  5
3a3
100
AcDbEntity
  8
0
 62
7
100
AcDbLine
 10
13.610717
 20
34.608477
 30
0.0
 11
13.610717
 21
34.268477
 31
0.0
  0
LINE
  5
3a4
100
AcDbEntity
  8
0
 62
7
100
AcDbLine
 10
13.610717
 20
34.268477
 30
0.0
 11
13.330497
 21
34.268477
 31
0.0
  0
LINE
  5
3a5
100
AcDbEntity
  8
0
 62
7
100
AcDbLine
 10
13.330497
 20
34.268477
 30
0.0
 11
13.050276
 21
34.268477
 31
0.0
  0
LINE
  5
3a6
100
AcDbEntity
  8
0
 62
7
100
AcDbLine
 10
13.050276
 20
34.268477
 30
0.0
 11
13.050276
 21
35.948477
 31
0.0
  0
LINE
  5
3a7
100
AcDbEntity
  8
0
 62
7
100
AcDbLine
 10
13.050276
 20
35.948477
 30
0.0
 11
13.050276
 21
37.628478
 31
0.0
  0
LINE
  5
3a8
100
AcDbEntity
  8
0
 62
7
100
AcDbLine
 10
13.050276
 20
37.628478
 30
0.0
 11
12.860126
 21
37.628478
 31
0.0
  0
LINE
  5
3a9
100
AcDbEntity
  8
0
 62
7
100
AcDbLine
 10
12.860126
 20
37.628478
 30
0.0
 11
12.669977
 21
37.628478
 31
0.0
  0
LINE
  5
3aa
100
AcDbEntity
  8
0
 62
7
100
AcDbLine
 10
12.669977
 20
37.628478
 30
0.0
 11
12.669977
 21
35.758477
 31
0.0
  0
LINE
  5
3ab
100
AcDbEntity
  8
0
 62
7
100
AcDbLine
 10
12.669977
 20
35.758477
 30
0.0
 11
12.669977
 21
33.888477
 31
0.0
  0
LINE
  5
3ac
100
AcDbEntity
  8
0
 62
7
100
AcDbLine
 10
12.669977
 20
33.888477
 30
0.0
 11
13.140348
 21
33.888477
 31
0.0
  0
LINE
  5
3ad
100
AcDbEntity
  8
0
 62
7
100
AcDbLine
 10
13.140348
 20
33.888477
 30
0.0
 11
13.610717
 21
33.888477
 31
0.0
  0
LINE
  5
3ae
100
AcDbEntity
  8
0
 62
7
100
AcDbLine
 10
13.610717
 20
33.888477
 30
0.0
 11
13.610717
 21
33.558477
 31
0.0
  0
SPLINE
  5
3af
100
AcDbEntity
  8
0
 62
7
100
AcDbSpline
 70
8
 71
3
 72
8
 73
4
 74
0
 40
0
 40
0
 40
0
 40
0
 40
1
 40
1
 40
1
 40
1
 10
13.610717
 20
33.558477
 30
0.0
 10
13.610717
 20
33.351811
 30
0.0
 10
13.618204
 20
33.228477
 30
0.0
 10
13.630719
 20
33.228477
 30
0.0
  0
SPLINE
  5
3b0
100
AcDbEntity
  8
0
 62
7
100
AcDbSpline
 70
8
 71
3
 72
8
 73
4
 74
0
 40
0
 40
0
 40
0
 40
0
 40
1
 40
1
 40
1
 40
1
 10
13.630719
 20
33.228477
 30
0.0
 10
13.643234
 20
33.228477
 30
0.0
 10
13.650748
 20
33.108477
 30
0.0
 10
13.650748
 20
32.908477
 30
0.0
  0
LINE
  5
3b1
100
AcDbEntity
  8
0
 62
7
100
AcDbLine
 10
13.650748
 20
32.908477
 30
0.0
 11
13.650748
 21
32.588477
 31
0.0
  0
LINE
  5
3b2
100
AcDbEntity
  8
0
 62
7
100
AcDbLine
 10
13.650748
 20
32.588477
 30
0.0
 11
13.490622
 21
32.588477
 31
0.0
  0
LINE
  5
3b3
100
AcDbEntity
  8
0
 62
7
100
AcDbLine
 10
13.490622
 20
32.588477
 30
0.0
 11
13.330497
 21
32.588477
 31
0.0
  0
LINE
  5
3b4
100
AcDbEntity
  8
0
 62
7
100
AcDbLine
 10
13.330497
 20
32.588477
 30
0.0
 11
13.330497
 21
31.978477
 31
0.0
  0
LINE
  5
3b5
100
AcDbEntity
  8
0
 62
7
100
AcDbLine
 10
13.330497
 20
31.978477
 30
0.0
 11
13.330497
 21
31.368477
 31
0.0
  0
LINE
  5
3b6
100
AcDbEntity
  8
0
 62
7
100
AcDbLine
 10
13.330497
 20
31.368477
 30
0.0
 11
13.490622
 21
31.368477
 31
0.0
  0
LINE
  5
3b7
100
AcDbEntity
  8
0
 62
7
100
AcDbLine
 10
13.490622
 20
31.368477
 30
0.0
 11
13.650748
 21
31.368477
 31
0.0
  0
LINE
  5
3b8
100
AcDbEntity
  8
0
 62
7
100
AcDbLine
 10
13.650748
 20
31.368477
 30
0.0
 11
13.650748
 21
30.048477
 31
0.0
  0
LINE
  5
3b9
100
AcDbEntity
  8
0
 62
7
100
AcDbLine
 10
13.650748
 20
30.048477
 30
0.0
 11
13.650748
 21
28.728477
 31
0.0
  0
LINE
  5
3ba
100
AcDbEntity
  8
0
 62
7
100
AcDbLine
 10
13.650748
 20
28.728477
 30
0.0
 11
13.190386
 21
28.728477
 31
0.0
  0
LINE
  5
3bb
100
AcDbEntity
  8
0
 62
7
100
AcDbLine
 10
13.190386
 20
28.728477
 30
0.0
 11
12.730025
 21
28.728477
 31
0.0
  0
LINE
  5
3bc
100
AcDbEntity
  8
0
 62
7
100
AcDbLine
 10
12.730025
 20
28.728477
 30
0.0
 11
12.730025
 21
27.918477
 31
0.0
  0
LINE
  5
3bd
100
AcDbEntity
  8
0
 62
7
100
AcDbLine
 10
12.730025
 20
27.918477
 30
0.0
 11
12.730025
 21
27.108477
 31
0.0
  0
LINE
  5
3be
100
AcDbEntity
  8
0
 62
7
100
AcDbLine
 10
12.730025
 20
27.108477
 30
0.0
 11
13.590701
 21
27.108477
 31
0.0
  0
LINE
  5
3bf
100
AcDbEntity
  8
0
 62
7
100
AcDbLine
 10
13.590701
 20
27.108477
 30
0.0
 11
14.451379
 21
27.108477
 31
0.0
  0
LINE
  5
3c0
100
AcDbEntity
  8
0
 62
7
100
AcDbLine
 10
14.451379
 20
27.108477
 30
0.0
 11
14.451379
 21
27.918477
 31
0.0
  0
LINE
  5
3c1
100
AcDbEntity
  8
0
 62
7
100
AcDbLine
 10
18.334437
 20
31.978477
 30
0.0
 11
18.334437
 21
32.788477
 31
0.0
  0
LINE
  5
3c2
100
AcDbEntity
  8
0
 62
7
100
AcDbLine
 10
18.334437
 20
32.788477
 30
0.0
 11
17.994169
 21
32.788477
 31
0.0
  0
LINE
  5
3c3
100
AcDbEntity
  8
0
 62
7
100
AcDbLine
 10
17.994169
 20
32.788477
 30
0.0
 11
17.653901
 21
32.788477
 31
0.0
  0
LINE
  5
3c4
100
AcDbEntity
  8
0
 62
7
100
AcDbLine
 10
17.653901
 20
32.788477
 30
0.0
 11
17.653901
 21
33.008477
 31
0.0
  0
LINE
  5
3c5
100
AcDbEntity
  8
0
 62
7
100
AcDbLine
 10
17.653901
 20
33.008477
 30
0.0
 11
17.653901
 21
33.228477
 31
0.0
  0
LINE
  5
3c6
100
AcDbEntity
  8
0
 62
7
100
AcDbLine
 10
17.653901
 20
33.228477
 30
0.0
 11
17.964146
 21
33.228477
 31
0.0
  0
LINE
  5
3c7
100
AcDbEntity
  8
0
 62
7
100
AcDbLine
 10
17.964146
 20
33.228477
 30
0.0
 11
18.274390
 21
33.228477
 31
0.0
  0
LINE
  5
3c8
100
AcDbEntity
  8
0
 62
7
100
AcDbLine
 10
18.274390
 20
33.228477
 30
0.0
 11
18.274390
 21
34.088477
 31
0.0
  0
LINE
  5
3c9
100
AcDbEntity
  8
0
 62
7
100
AcDbLine
 10
18.274390
 20
34.088477
 30
0.0
 11
18.274390
 21
34.948478
 31
0.0
  0
LINE
  5
3ca
100
AcDbEntity
  8
0
 62
7
100
AcDbLine
 10
18.274390
 20
34.948478
 30
0.0
 11
17.463751
 21
34.948478
 31
0.0
  0
LINE
  5
3cb
100
AcDbEntity
  8
0
 62
7
100
AcDbLine
 10
17.463751
 20
34.948478
 30
0.0
 11
16.653113
 21
34.948478
 31
0.0
  0
LINE
  5
3cc
100
AcDbEntity
  8
0
 62
7
100
AcDbLine
 10
16.653113
 20
34.948478
 30
0.0
 11
16.653113
 21
34.088477
 31
0.0
  0
LINE
  5
3cd
100
AcDbEntity
  8
0
 62
7
100
AcDbLine
 10
16.653113
 20
34.088477
 30
0.0
 11
16.653113
 21
33.228477
 31
0.0
  0
LINE
  5
3ce
100
AcDbEntity
  8
0
 62
7
100
AcDbLine
 10
16.653113
 20
33.228477
 30
0.0
 11
16.963357
 21
33.228477
 31
0.0
  0
LINE
  5
3cf
100
AcDbEntity
  8
0
 62
7
100
AcDbLine
 10
16.963357
 20
33.228477
 30
0.0
 11
17.273602
 21
33.228477
 31
0.0
  0
LINE
  5
3d0
100
AcDbEntity
  8
0
 62
7
100
AcDbLine
 10
17.273602
 20
33.228477
 30
0.0
 11
17.273602
 21
33.008477
 31
0.0
  0
LINE
  5
3d1
100
AcDbEntity
  8
0
 62
7
100
AcDbLine
 10
17.273602
 20
33.008477
 30
0.0
 11
17.273602
 21
32.788477
 31
0.0
  0
LINE
  5
3d2
100
AcDbEntity
  8
0
 62
7
100
AcDbLine
 10
17.273602
 20
32.788477
 30
0.0
 11
16.943342
 21
32.788477
 31
0.0
  0
LINE
  5
3d3
100
AcDbEntity
  8
0
 62
7
100
AcDbLine
 10
16.943342
 20
32.788477
 30
0.0
 11
16.613082
 21
32.788477
 31
0.0
  0
LINE
  5
3d4
100
AcDbEntity
  8
0
 62
7
100
AcDbLine
 10
16.613082
 20
32.788477
 30
0.0
 11
16.613082
 21
31.978477
 31
0.0
  0
LINE
  5
3d5
100
AcDbEntity
  8
0
 62
7
100
AcDbLine
 10
16.613082
 20
31.978477
 30
0.0
 11
16.613082
 21
31.168477
 31
0.0
  0
LINE
  5
3d6
100
AcDbEntity
  8
0
 62
7
100
AcDbLine
 10
16.613082
 20
31.168477
 30
0.0
 11
17.473759
 21
31.168477
 31
0.0
  0
LINE
  5
3d7
100
AcDbEntity
  8
0
 62
7
100
AcDbLine
 10
17.473759
 20
31.168477
 30
0.0
 11
18.334437
 21
31.168477
 31
0.0
  0
LINE
  5
3d8
100
AcDbEntity
  8
0
 62
7
100
AcDbLine
 10
18.334437
 20
31.168477
 30
0.0
 11
18.334437
 21
31.978477
 31
0.0
  0
LINE
  5
3d9
100
AcDbEntity
  8
0
 62
7
100
AcDbLine
 10
11.449015
 20
36.618478
 30
0.0
 11
11.449015
 21
37.628478
 31
0.0
  0
LINE
  5
3da
100
AcDbEntity
  8
0
 62
7
100
AcDbLine
 10
11.449015
 20
37.628478
 30
0.0
 11
11.258865
 21
37.628478
 31
0.0
  0
LINE
  5
3db
100
AcDbEntity
  8
0
 62
7
100
AcDbLine
 10
11.258865
 20
37.628478
 30
0.0
 11
11.068716
 21
37.628478
 31
0.0
  0
LINE
  5
3dc
100
AcDbEntity
  8
0
 62
7
100
AcDbLine
 10
11.068716
 20
37.628478
 30
0.0
 11
11.068716
 21
36.618478
 31
0.0
  0
LINE
  5
3dd
100
AcDbEntity
  8
0
 62
7
100
AcDbLine
 10
11.068716
 20
36.618478
 30
0.0
 11
11.068716
 21
35.608477
 31
0.0
  0
LINE
  5
3de
100
AcDbEntity
  8
0
 62
7
100
AcDbLine
 10
11.068716
 20
35.608477
 30
0.0
 11
11.258865
 21
35.608477
 31
0.0
  0
LINE
  5
3df
100
AcDbEntity
  8
0
 62
7
100
AcDbLine
 10
11.258865
 20
35.608477
 30
0.0
 11
11.449015
 21
35.608477
 31
0.0
  0
LINE
  5
3e0
100
AcDbEntity
  8
0
 62
7
100
AcDbLine
 10
11.449015
 20
35.608477
 30
0.0
 11
11.449015
 21
36.618478
 31
0.0
  0
LINE
  5
3e1
100
AcDbEntity
  8
0
 62
7
100
AcDbLine
 10
9.127188
 20
37.378478
 30
0.0
 11
9.127188
 21
38.468478
 31
0.0
  0
LINE
  5
3e2
100
AcDbEntity
  8
0
 62
7
100
AcDbLine
 10
9.127188
 20
38.468478
 30
0.0
 11
7.876201
 21
38.468478
 31
0.0
  0
LINE
  5
3e3
100
AcDbEntity
  8
0
 62
7
100
AcDbLine
 10
7.876201
 20
38.468478
 30
0.0
 11
6.625217
 21
38.468478
 31
0.0
  0
LINE
  5
3e4
100
AcDbEntity
  8
0
 62
7
100
AcDbLine
 10
6.625217
 20
38.468478
 30
0.0
 11
6.625217
 21
37.378478
 31
0.0
  0
LINE
  5
3e5
100
AcDbEntity
  8
0
 62
7
100
AcDbLine
 10
6.625217
 20
37.378478
 30
0.0
 11
6.625217
 21
36.288478
 31
0.0
  0
LINE
  5
3e6
100
AcDbEntity
  8
0
 62
7
100
AcDbLine
 10
6.625217
 20
36.288478
 30
0.0
 11
7.876201
 21
36.288478
 31
0.0
  0
LINE
  5
3e7
100
AcDbEntity
  8
0
 62
7
100
AcDbLine
 10
7.876201
 20
36.288478
 30
0.0
 11
9.127188
 21
36.288478
 31
0.0
  0
LINE
  5
3e8
100
AcDbEntity
  8
0
 62
7
100
AcDbLine
 10
9.127188
 20
36.288478
 30
0.0
 11
9.127188
 21
37.378478
 31
0.0
  0
LINE
  5
3e9
100
AcDbEntity
  8
0
 62
7
100
AcDbLine
 10
17.493775
 20
37.378478
 30
0.0
 11
17.493775
 21
38.468478
 31
0.0
  0
LINE
  5
3ea
100
AcDbEntity
  8
0
 62
7
100
AcDbLine
 10
17.493775
 20
38.468478
 30
0.0
 11
16.252798
 21
38.468478
 31
0.0
  0
LINE
  5
3eb
100
AcDbEntity
  8
0
 62
7
100
AcDbLine
 10
16.252798
 20
38.468478
 30
0.0
 11
15.011821
 21
38.468478
 31
0.0
  0
LINE
  5
3ec
100
AcDbEntity
  8
0
 62
7
100
AcDbLine
 10
15.011821
 20
38.468478
 30
0.0
 11
15.011821
 21
37.378478
 31
0.0
  0
LINE
  5
3ed
100
AcDbEntity
  8
0
 62
7
100
AcDbLine
 10
15.011821
 20
37.378478
 30
0.0
 11
15.011821
 21
36.288478
 31
0.0
  0
LINE
  5
3ee
100
AcDbEntity
  8
0
 62
7
100
AcDbLine
 10
15.011821
 20
36.288478
 30
0.0
 11
16.252798
 21
36.288478
 31
0.0
  0
LINE
  5
3ef
100
AcDbEntity
  8
0
 62
7
100
AcDbLine
 10
16.252798
 20
36.288478
 30
0.0
 11
17.493775
 21
36.288478
 31
0.0
  0
LINE
  5
3f0
100
AcDbEntity
  8
0
 62
7
100
AcDbLine
 10
17.493775
 20
36.288478
 30
0.0
 11
17.493775
 21
37.378478
 31
0.0
  0
LINE
  5
3f1
100
AcDbEntity
  8
0
 62
7
100
AcDbLine
 10
3.062412
 20
38.138478
 30
0.0
 11
3.062412
 21
38.648478
 31
0.0
  0
LINE
  5
3f2
100
AcDbEntity
  8
0
 62
7
100
AcDbLine
 10
3.062412
 20
38.648478
 30
0.0
 11
2.552009
 21
38.648478
 31
0.0
  0
LINE
  5
3f3
100
AcDbEntity
  8
0
 62
7
100
AcDbLine
 10
2.552009
 20
38.648478
 30
0.0
 11
2.041607
 21
38.648478
 31
0.0
  0
LINE
  5
3f4
100
AcDbEntity
  8
0
 62
7
100
AcDbLine
 10
2.041607
 20
38.648478
 30
0.0
 11
2.041607
 21
38.138478
 31
0.0
  0
LINE
  5
3f5
100
AcDbEntity
  8
0
 62
7
100
AcDbLine
 10
2.041607
 20
38.138478
 30
0.0
 11
2.041607
 21
37.628478
 31
0.0
  0
LINE
  5
3f6
100
AcDbEntity
  8
0
 62
7
100
AcDbLine
 10
2.041607
 20
37.628478
 30
0.0
 11
2.552009
 21
37.628478
 31
0.0
  0
LINE
  5
3f7
100
AcDbEntity
  8
0
 62
7
100
AcDbLine
 10
2.552009
 20
37.628478
 30
0.0
 11
3.062412
 21
37.628478
 31
0.0
  0
LINE
  5
3f8
100
AcDbEntity
  8
0
 62
7
100
AcDbLine
 10
3.062412
 20
37.628478
 30
0.0
 11
3.062412
 21
38.138478
 31
0.0
  0
LINE
  5
3f9
100
AcDbEntity
  8
0
 62
7
100
AcDbLine
 10
4.583610
 20
38.138478
 30
0.0
 11
4.583610
 21
38.648478
 31
0.0
  0
LINE
  5
3fa
100
AcDbEntity
  8
0
 62
7
100
AcDbLine
 10
4.583610
 20
38.648478
 30
0.0
 11
4.073207
 21
38.648478
 31
0.0
  0
LINE
  5
3fb
100
AcDbEntity
  8
0
 62
7
100
AcDbLine
 10
4.073207
 20
38.648478
 30
0.0
 11
3.562805
 21
38.648478
 31
0.0
  0
LINE
  5
3fc
100
AcDbEntity
  8
0
 62
7
100
AcDbLine
 10
3.562805
 20
38.648478
 30
0.0
 11
3.562805
 21
38.138478
 31
0.0
  0
LINE
  5
3fd
100
AcDbEntity
  8
0
 62
7
100
AcDbLine
 10
3.562805
 20
38.138478
 30
0.0
 11
3.562805
 21
37.628478
 31
0.0
  0
LINE
  5
3fe
100
AcDbEntity
  8
0
 62
7
100
AcDbLine
 10
3.562805
 20
37.628478
 30
0.0
 11
4.073207
 21
37.628478
 31
0.0
  0
LINE
  5
3ff
100
AcDbEntity
  8
0
 62
7
100
AcDbLine
 10
4.073207
 20
37.628478
 30
0.0
 11
4.583610
 21
37.628478
 31
0.0
  0
LINE
  5
400
100
AcDbEntity
  8
0
 62
7
100
AcDbLine
 10
4.583610
 20
37.628478
 30
0.0
 11
4.583610
 21
38.138478
 31
0.0
  0
LINE
  5
401
100
AcDbEntity
  8
0
 62
7
100
AcDbLine
 10
6.104808
 20
38.138478
 30
0.0
 11
6.104808
 21
38.648478
 31
0.0
  0
LINE
  5
402
100
AcDbEntity
  8
0
 62
7
100
AcDbLine
 10
6.104808
 20
38.648478
 30
0.0
 11
5.594405
 21
38.648478
 31
0.0
  0
LINE
  5
403
100
AcDbEntity
  8
0
 62
7
100
AcDbLine
 10
5.594405
 20
38.648478
 30
0.0
 11
5.084003
 21
38.648478
 31
0.0
  0
LINE
  5
404
100
AcDbEntity
  8
0
 62
7
100
AcDbLine
 10
5.084003
 20
38.648478
 30
0.0
 11
5.084003
 21
38.138478
 31
0.0
  0
LINE
  5
405
100
AcDbEntity
  8
0
 62
7
100
AcDbLine
 10
5.084003
 20
38.138478
 30
0.0
 11
5.084003
 21
37.628478
 31
0.0
  0
LINE
  5
406
100
AcDbEntity
  8
0
 62
7
100
AcDbLine
 10
5.084003
 20
37.628478
 30
0.0
 11
5.594405
 21
37.628478
 31
0.0
  0
LINE
  5
407
100
AcDbEntity
  8
0
 62
7
100
AcDbLine
 10
5.594405
 20
37.628478
 30
0.0
 11
6.104808
 21
37.628478
 31
0.0
  0
LINE
  5
408
100
AcDbEntity
  8
0
 62
7
100
AcDbLine
 10
6.104808
 20
37.628478
 30
0.0
 11
6.104808
 21
38.138478
 31
0.0
  0
LINE
  5
409
100
AcDbEntity
  8
0
 62
7
100
AcDbLine
 10
3.062412
 20
39.668478
 30
0.0
 11
3.062412
 21
40.168478
 31
0.0
  0
LINE
  5
40a
100
AcDbEntity
  8
0
 62
7
100
AcDbLine
 10
3.062412
 20
40.168478
 30
0.0
 11
2.552009
 21
40.168478
 31
0.0
  0
LINE
  5
40b
100
AcDbEntity
  8
0
 62
7
100
AcDbLine
 10
2.552009
 20
40.168478
 30
0.0
 11
2.041607
 21
40.168478
 31
0.0
  0
LINE
  5
40c
100
AcDbEntity
  8
0
 62
7
100
AcDbLine
 10
2.041607
 20
40.168478
 30
0.0
 11
2.041607
 21
39.668478
 31
0.0
  0
LINE
  5
40d
100
AcDbEntity
  8
0
 62
7
100
AcDbLine
 10
2.041607
 20
39.668478
 30
0.0
 11
2.041607
 21
39.168478
 31
0.0
  0
LINE
  5
40e
100
AcDbEntity
  8
0
 62
7
100
AcDbLine
 10
2.041607
 20
39.168478
 30
0.0
 11
2.552009
 21
39.168478
 31
0.0
  0
LINE
  5
40f
100
AcDbEntity
  8
0
 62
7
100
AcDbLine
 10
2.552009
 20
39.168478
 30
0.0
 11
3.062412
 21
39.168478
 31
0.0
  0
LINE
  5
410
100
AcDbEntity
  8
0
 62
7
100
AcDbLine
 10
3.062412
 20
39.168478
 30
0.0
 11
3.062412
 21
39.668478
 31
0.0
  0
SPLINE
  5
411
100
AcDbEntity
  8
0
 62
7
100
AcDbSpline
 70
8
 71
3
 72
8
 73
4
 74
0
 40
0
 40
0
 40
0
 40
0
 40
1
 40
1
 40
1
 40
1
 10
4.335362
 20
39.239431
 30
0.0
 10
4.502949
 20
39.342725
 30
0.0
 10
4.601993
 20
39.556561
 30
0.0
 10
4.571246
 20
39.748699
 30
0.0
  0
SPLINE
  5
412
100
AcDbEntity
  8
0
 62
7
100
AcDbSpline
 70
8
 71
3
 72
8
 73
4
 74
0
 40
0
 40
0
 40
0
 40
0
 40
1
 40
1
 40
1
 40
1
 10
4.571246
 20
39.748699
 30
0.0
 10
4.551032
 20
39.874986
 30
0.0
 10
4.447548
 20
40.028377
 30
0.0
 10
4.336298
 20
40.096946
 30
0.0
  0
SPLINE
  5
413
100
AcDbEntity
  8
0
 62
7
100
AcDbSpline
 70
8
 71
3
 72
8
 73
4
 74
0
 40
0
 40
0
 40
0
 40
0
 40
1
 40
1
 40
1
 40
1
 10
4.336298
 20
40.096946
 30
0.0
 10
4.158744
 20
40.206382
 30
0.0
 10
3.900540
 20
40.187910
 30
0.0
 10
3.741764
 20
40.054414
 30
0.0
  0
SPLINE
  5
414
100
AcDbEntity
  8
0
 62
7
100
AcDbSpline
 70
8
 71
3
 72
8
 73
4
 74
0
 40
0
 40
0
 40
0
 40
0
 40
1
 40
1
 40
1
 40
1
 10
3.741764
 20
40.054414
 30
0.0
 10
3.601389
 20
39.936389
 30
0.0
 10
3.532632
 20
39.713730
 30
0.0
 10
3.581162
 20
39.534319
 30
0.0
  0
SPLINE
  5
415
100
AcDbEntity
  8
0
 62
7
100
AcDbSpline
 70
8
 71
3
 72
8
 73
4
 74
0
 40
0
 40
0
 40
0
 40
0
 40
1
 40
1
 40
1
 40
1
 10
3.581162
 20
39.534319
 30
0.0
 10
3.615333
 20
39.407994
 30
0.0
 10
3.717067
 20
39.286759
 30
0.0
 10
3.843163
 20
39.222095
 30
0.0
  0
SPLINE
  5
416
100
AcDbEntity
  8
0
 62
7
100
AcDbSpline
 70
8
 71
3
 72
8
 73
4
 74
0
 40
0
 40
0
 40
0
 40
0
 40
1
 40
1
 40
1
 40
1
 10
3.843163
 20
39.222095
 30
0.0
 10
3.939122
 20
39.172887
 30
0.0
 10
3.971189
 20
39.166555
 30
0.0
 10
4.095173
 20
39.172330
 30
0.0
  0
SPLINE
  5
417
100
AcDbEntity
  8
0
 62
7
100
AcDbSpline
 70
8
 71
3
 72
8
 73
4
 74
0
 40
0
 40
0
 40
0
 40
0
 40
1
 40
1
 40
1
 40
1
 10
4.095173
 20
39.172330
 30
0.0
 10
4.211293
 20
39.177738
 30
0.0
 10
4.255148
 20
39.189991
 30
0.0
 10
4.335362
 20
39.239431
 30
0.0
  0
LINE
  5
418
100
AcDbEntity
  8
0
 62
7
100
AcDbLine
 10
4.335362
 20
39.239431
 30
0.0
 11
4.335362
 21
39.239431
 31
0.0
  0
LINE
  5
419
100
AcDbEntity
  8
0
 62
7
100
AcDbLine
 10
6.104808
 20
39.668478
 30
0.0
 11
6.104808
 21
40.168478
 31
0.0
  0
LINE
  5
41a
100
AcDbEntity
  8
0
 62
7
100
AcDbLine
 10
6.104808
 20
40.168478
 30
0.0
 11
5.594405
 21
40.168478
 31
0.0
  0
LINE
  5
41b
100
AcDbEntity
  8
0
 62
7
100
AcDbLine
 10
5.594405
 20
40.168478
 30
0.0
 11
5.084003
 21
40.168478
 31
0.0
  0
LINE
  5
41c
100
AcDbEntity
  8
0
 62
7
100
AcDbLine
 10
5.084003
 20
40.168478
 30
0.0
 11
5.084003
 21
39.668478
 31
0.0
  0
LINE
  5
41d
100
AcDbEntity
  8
0
 62
7
100
AcDbLine
 10
5.084003
 20
39.668478
 30
0.0
 11
5.084003
 21
39.168478
 31
0.0
  0
LINE
  5
41e
100
AcDbEntity
  8
0
 62
7
100
AcDbLine
 10
5.084003
 20
39.168478
 30
0.0
 11
5.594405
 21
39.168478
 31
0.0
  0
LINE
  5
41f
100
AcDbEntity
  8
0
 62
7
100
AcDbLine
 10
5.594405
 20
39.168478
 30
0.0
 11
6.104808
 21
39.168478
 31
0.0
  0
LINE
  5
420
100
AcDbEntity
  8
0
 62
7
100
AcDbLine
 10
6.104808
 20
39.168478
 30
0.0
 11
6.104808
 21
39.668478
 31
0.0
  0
SPLINE
  5
421
100
AcDbEntity
  8
0
 62
7
100
AcDbSpline
 70
8
 71
3
 72
8
 73
4
 74
0
 40
0
 40
0
 40
0
 40
0
 40
1
 40
1
 40
1
 40
1
 10
2.775064
 20
40.734669
 30
0.0
 10
3.024703
 20
40.864160
 30
0.0
 10
3.124319
 20
41.182661
 30
0.0
 10
2.991466
 20
41.426563
 30
0.0
  0
SPLINE
  5
422
100
AcDbEntity
  8
0
 62
7
100
AcDbSpline
 70
8
 71
3
 72
8
 73
4
 74
0
 40
0
 40
0
 40
0
 40
0
 40
1
 40
1
 40
1
 40
1
 10
2.991466
 20
41.426563
 30
0.0
 10
2.897124
 20
41.599765
 30
0.0
 10
2.740416
 20
41.692478
 30
0.0
 10
2.542003
 20
41.692478
 30
0.0
  0
SPLINE
  5
423
100
AcDbEntity
  8
0
 62
7
100
AcDbSpline
 70
8
 71
3
 72
8
 73
4
 74
0
 40
0
 40
0
 40
0
 40
0
 40
1
 40
1
 40
1
 40
1
 10
2.542003
 20
41.692478
 30
0.0
 10
2.282838
 20
41.692478
 30
0.0
 10
2.074478
 20
41.502137
 30
0.0
 10
2.047703
 20
41.240926
 30
0.0
  0
SPLINE
  5
424
100
AcDbEntity
  8
0
 62
7
100
AcDbSpline
 70
8
 71
3
 72
8
 73
4
 74
0
 40
0
 40
0
 40
0
 40
0
 40
1
 40
1
 40
1
 40
1
 10
2.047703
 20
41.240926
 30
0.0
 10
2.026166
 20
41.030795
 30
0.0
 10
2.128914
 20
40.844184
 30
0.0
 10
2.322195
 20
40.742416
 30
0.0
  0
SPLINE
  5
425
100
AcDbEntity
  8
0
 62
7
100
AcDbSpline
 70
8
 71
3
 72
8
 73
4
 74
0
 40
0
 40
0
 40
0
 40
0
 40
1
 40
1
 40
1
 40
1
 10
2.322195
 20
40.742416
 30
0.0
 10
2.420151
 20
40.690838
 30
0.0
 10
2.446935
 20
40.685576
 30
0.0
 10
2.572025
 20
40.693336
 30
0.0
  0
SPLINE
  5
426
100
AcDbEntity
  8
0
 62
7
100
AcDbSpline
 70
8
 71
3
 72
8
 73
4
 74
0
 40
0
 40
0
 40
0
 40
0
 40
1
 40
1
 40
1
 40
1
 10
2.572025
 20
40.693336
 30
0.0
 10
2.649085
 20
40.698117
 30
0.0
 10
2.740453
 20
40.716718
 30
0.0
 10
2.775064
 20
40.734669
 30
0.0
  0
LINE
  5
427
100
AcDbEntity
  8
0
 62
7
100
AcDbLine
 10
2.775064
 20
40.734669
 30
0.0
 11
2.775064
 21
40.734669
 31
0.0
  0
LINE
  5
428
100
AcDbEntity
  8
0
 62
7
100
AcDbLine
 10
4.583610
 20
41.198478
 30
0.0
 11
4.583610
 21
41.708478
 31
0.0
  0
LINE
  5
429
100
AcDbEntity
  8
0
 62
7
100
AcDbLine
 10
4.583610
 20
41.708478
 30
0.0
 11
4.073207
 21
41.708478
 31
0.0
  0
LINE
  5
42a
100
AcDbEntity
  8
0
 62
7
100
AcDbLine
 10
4.073207
 20
41.708478
 30
0.0
 11
3.562805
 21
41.708478
 31
0.0
  0
LINE
  5
42b
100
AcDbEntity
  8
0
 62
7
100
AcDbLine
 10
3.562805
 20
41.708478
 30
0.0
 11
3.562805
 21
41.198478
 31
0.0
  0
LINE
  5
42c
100
AcDbEntity
  8
0
 62
7
100
AcDbLine
 10
3.562805
 20
41.198478
 30
0.0
 11
3.562805
 21
40.688478
 31
0.0
  0
LINE
  5
42d
100
AcDbEntity
  8
0
 62
7
100
AcDbLine
 10
3.562805
 20
40.688478
 30
0.0
 11
4.073207
 21
40.688478
 31
0.0
  0
LINE
  5
42e
100
AcDbEntity
  8
0
 62
7
100
AcDbLine
 10
4.073207
 20
40.688478
 30
0.0
 11
4.583610
 21
40.688478
 31
0.0
  0
LINE
  5
42f
100
AcDbEntity
  8
0
 62
7
100
AcDbLine
 10
4.583610
 20
40.688478
 30
0.0
 11
4.583610
 21
41.198478
 31
0.0
  0
LINE
  5
430
100
AcDbEntity
  8
0
 62
7
100
AcDbLine
 10
6.104808
 20
41.198478
 30
0.0
 11
6.104808
 21
41.708478
 31
0.0
  0
LINE
  5
431
100
AcDbEntity
  8
0
 62
7
100
AcDbLine
 10
6.104808
 20
41.708478
 30
0.0
 11
5.594405
 21
41.708478
 31
0.0
  0
LINE
  5
432
100
AcDbEntity
  8
0
 62
7
100
AcDbLine
 10
5.594405
 20
41.708478
 30
0.0
 11
5.084003
 21
41.708478
 31
0.0
  0
LINE
  5
433
100
AcDbEntity
  8
0
 62
7
100
AcDbLine
 10
5.084003
 20
41.708478
 30
0.0
 11
5.084003
 21
41.198478
 31
0.0
  0
LINE
  5
434
100
AcDbEntity
  8
0
 62
7
100
AcDbLine
 10
5.084003
 20
41.198478
 30
0.0
 11
5.084003
 21
40.688478
 31
0.0
  0
LINE
  5
435
100
AcDbEntity
  8
0
 62
7
100
AcDbLine
 10
5.084003
 20
40.688478
 30
0.0
 11
5.594405
 21
40.688478
 31
0.0
  0
LINE
  5
436
100
AcDbEntity
  8
0
 62
7
100
AcDbLine
 10
5.594405
 20
40.688478
 30
0.0
 11
6.104808
 21
40.688478
 31
0.0
  0
LINE
  5
437
100
AcDbEntity
  8
0
 62
7
100
AcDbLine
 10
6.104808
 20
40.688478
 30
0.0
 11
6.104808
 21
41.198478
 31
0.0
  0
ENDSEC
  0
SECTION
  2
OBJECTS
  0
DICTIONARY
  5
C
330
0
100
AcDbDictionary
  3
ACAD_GROUP
350
D
  3
ACAD_MLINESTYLE
350
17
  0
DICTIONARY
  5
D
330
C
100
AcDbDictionary
  0
DICTIONARY
  5
1A
330
C
100
AcDbDictionary
  0
DICTIONARY
  5
17
330
C
100
AcDbDictionary
  3
STANDARD
350
18
  0
DICTIONARY
  5
19
330
C
100
AcDbDictionary
  0
ENDSEC
  0
EOF
